» » »

Cancion De Amor Bass tabs (ver.2)

Artists:  A B C D E F G H I J K L M N O P Q R S T U V W X Y Z # 

Cancion De Amor Bass tabs (ver.2)

2 Minutos
Rating:
0/5 (0 votes)

Hard to play? Try these video lessons and learn fast.
                Intro
G|-------------------------------------------------------
D|*------------------------------------------------------
A|*-------------2-2-2-2-2-2-2-------------5-5-7-5--5-5-5-
E|-3-3-3-3-3-3-3-------------5-5-5-5-5-5-5---------------

Verse
G|-------------------------------------------------------
D|*------------------------------------------------------
A|*-------------2-2-2-2-2-2-2-------------5-5-5-5-5-5-5--
E|-3-3-3-3-3-3-3-------------5-5-5-5-5-5-5---------------

Faster Verse
G|-------------------------------------------------------
D|*------------------------------------------------------
A|*-------2222222-------555555---------------------------
E|-3333333-------5555555---------------------------------

Chorus
G|-------------------------------------------------------
D|--2222222----------------------------------------------
A|----------333333-5555555555555-------------------------
E|-------------------------------------------------------

Bridge
G|-------------------------------------------------------
D|-------------------------------------------------------
A|------2-2~----5-5~----2-2~----5-5~---------------------
E|--3-3~----5-5~----3-3~----5-5~-------------------------

1st Outro
G|-------------------------------------------------------
D|-------------------------------------------------------
A|----------2-22-22---------5-55-55----------------------
E|--3-33-33---------5-55-55------------------------------

2nd Outro
G|-------------------------------------------------------
D|-------------------------------------------------------
A|---------2~------------5~------------2~------------5~--
E|--3~------------5~------------3~------------5~---------

Song Structure

Intro x2
Verse x4
Fast verse x4
Chorus x2
Fast verse x4
chorus x2
Bridge x1
1st Outro x2
2nd Outro x1

Any Problem send it to my email
Koumshaut 2003 Copyright©
            
Hard to play? Try these video lessons and learn fast. | Correct




comments powered by Disqus
↑ Back to top | Tablatures and chords are parodies/interpretations of the original songs. You may use it for private study, scholarship, research or language learning purposes only