» » »

2 Minutos, Cancion De Amor Tabs (ver.1)

Artists:  A B C D E F G H I J K L M N O P Q R S T U V W X Y Z # 

Cancion De Amor Tabs (ver.1)

2 Minutos Tabs
 Rating:
4/5 (4 votes)
Cancion De Amor lessons Tabs too difficult? Try these video lessons and learn fast
                KEY
... : PALM MUTED

Chords Used

   G   A   B    C    D    E
e|---|---|---|----|----|----|
B|---|---|---|----|----|----|
G|---|---|---|----|----|----|
D|-5-|-7-|-9-|-10-|-12-|-14-|
A|-5-|-7-|-9-|-10-|-12-|-14-|
E|-3-|-5-|-7-|-8--|-10-|-12-|

INTRO x2

e-------------------------------------------------------------
B-------------------------------------------------------------
G-------------------------------------------------------------
D-5-5-5-5-5-5-5-9-9-9-9-9-9-9-7-7-7-7-7-7-7-12-12-14-12-9-7-5-
A-5-5-5-5-5-5-5-9-9-9-9-9-9-9-7-7-7-7-7-7-7-12-12-14-12-9-7-5-
E-3-3-3-3-3-3-3-7-7-7-7-7-7-7-5-5-5-5-5-5-5-10-10-12-10-7-5-3-
  . . . . . . . . . . . . . . . . . . . . . .  .  .  .  . . .

Verse 1

All in palm muted

G           B
Yo estoy enamorado de vos,
A          D
desde hace mucho tiempo.
G	           B
Me gusta tu cuerpo esbelto
     A           D
pero mas me gusta lo de adentro.
G               B
Muchas veces me di vuelta por vos
A                      D
y muchas dadas vueltas mas yo tendré
G             B
Siempre te he sido fiel
A                 D
pero vos conmigo no lo sos.


Verse 2

G           B
Yo estoy enamorado de vos,
A          D
desde hace mucho tiempo.
G	           B
Me gusta tu cuerpo esbelto
     A           D
pero mas me gusta lo de adentro.
G               B
Muchas veces me di vuelta por vos
A                      D   
y muchas dadas vueltas mas yo tendré
G             B
Siempre te he sido fiel
A                 D
pero vos conmigo no lo sos.


Chorus

E          C
CERVEZA, YO TE QUIERO
D
CERVEZA, YO TE ADORO
E        C
CERVEZA, YO TE QUIERO
D        C
CERVEZA, YO TE ADORO.


Verse 2

G           B
Yo estoy enamorado de vos,
A          D     E  D
desde hace mucho tiempo.
G	           B
Me gusta tu cuerpo esbelto
     A           D
pero mas me gusta lo de adentro.
G               B
Muchas veces me di vuelta por vos
A                      D   
y muchas dadas vueltas mas yo tendré
G             B
Siempre te he sido fiel
A                 D
pero vos conmigo no lo sos.


Chorus


E          C
CERVEZA, YO TE QUIERO
D
CERVEZA, YO TE ADORO
E        C
CERVEZA, YO TE QUIERO
D        C
CERVEZA, YO TE ADORO.


Interlude X5

e----------------------
B----------------------
G----------------------
D-5-----9-----7-----12-
A-5-----9-----7-----12-
E-3-----7-----5-----10-

At the end:

e---------------------------------------
B---------------------------------------
G---------------------------------------
D-5-----9-----7-----12-14-12-5----------
A-5-----9-----7-----12-14-12-5-let ring-
E-3-----7-----5-----10-12-10-3----------
            
Submit corrections

comments powered by Disqus
↑ Back to top | 2 Minutos Tabs for Cancion De Amor. Lyrics for acoustic guitar and electric guitar. Tablatures and chords are parodies/interpretations of the original songs. You may use it for private study, scholarship, research or language learning purposes only