>
 >
Anthem For The Underdog 1

Anthem For The Underdog 1 Guitar Tabs

12 Stones - Anthem For The Underdog 1 chords, tabs, tablatures, lyrics

Guitar lessons | Add/correct | Request | Top 50 tabs Artists:  A B C D E F G H I J K L M N O P Q R S T U V W X Y Z 0-9

Anthem For The Underdog 1 Guitar Tabs – 12 Stones

CD, Sheet music, Poster

Do you like Anthem For The Underdog 1? Share with your friends now
Bass TabsTabsTabs v2
Anthem For The Underdog -- 12 Stones


Drop C

Verse 1
-------
D|-----------------------------------------------------------------|
A|-----------------------------------------------------------------|
F|-7-----7/1111----------------------------------------------------|
C|-7(x12)7/1111(x10)-0-9-99-9h10p9-9-9h10p9-0-9-99-9h10p9-9-9h10p9-|
G|-5-----5/9-9-------0-9-99-9h10p9-9-9h10p9-0-9-99-9h10p9-9-9h10p9-|
C|-------------------0-9-99-9h10p9-9-9h10p9-0-9-99-9h10p9-9-9h10p9-|
                                                         x2 times
   "You say you know just who i am. But you can't imagine
    What waits for you across the line. You thought you had me."

Pre-Chorus 1
------------
D|---------------------------------------------------------------------------------|
A|-13-13-13131313-----------------------88-8877-77---------------------------------|
F|-12-12-12121212-9-9-9-9999\7-7-7-7777-77-7777-77-5-5-5555/9-9-9-9999\7-7-7-7-----|
C|-10-10-10101010-9-9-9-9999\7-7-7-7777-77-7777-77-5-5-5555/9-9-9-9999\7-7-7-7(x9)-|
G|-10-10-10101010-7-7-7-7777\5-5-5-5555-55-5555-55-3-3-3333/7-7-7-7777\5-5-5-5-----|
C|-10-10-10101010------------------------------------------------------------------|  
   "But i'm still here standing.
    And i'm tired of backing down."

Chorus 1
--------
D|-------------------------------------------------------------------------|
A|----------5-5-5-5555------------------------------------------------8-88-|
F|-5-5-5555-4-4-4-4444--------11/12\11-1111--------7/9\7-77--5-5-5555-7-77-|
C|-5-5-5555-2-2-2-2222---------x/x \x---x-x--------x/x\x-xx--5-5-5555-5-55-|
G|-3-3-3333-2-2-2-2222-00-0-0--9/10\9---9-9-00-0-0-5/7\5-55--3-3-3333-5-55-|
C|----------2-2-2-2222-00-0-0---------------00-0-0--------------------5-55-|
                     pm.. . .               .. . .
   "And i'm here now feeling the pain of a thousand hearts
    Been to hell and back again. I won't take this."

D|---------------------------------------|
A|---------------------------------------|
F|--------4p7-4p5------------4p7-4p5-5~--|
C|----------------7p5--------------------|
G|-00-0-0-------------00-0-0-------------|
C|-00-0-0-------------00-0-0-------------|
 pm.. . .             .. . .    x2 times


Verse 2
-------
D|-----------------------------------------------------------------|
A|-----------------------------------------------------------------|
F|-7-----7/1111----------------------------------------------------|
C|-7(x12)7/1111(x10)-0-9-99-9h10p9-9-9h10p9-0-9-99-9h10p9-9-9h10p9-|
G|-5-----5/9-9-------0-9-99-9h10p9-9-9h10p9-0-9-99-9h10p9-9-9h10p9-|
C|-------------------0-9-99-9h10p9-9-9h10p9-0-9-99-9h10p9-9-9h10p9-|
                                                         x2 times
   "You try so hard to bring me down. you can't break the broken.
    You still don't seem to understand. It's your turn to see just."

Pre-Chorus 2
------------
D|---------------------------------------------------------------------------------|
A|-13-13-13131313-----------------------88-8877-77---------------------------------|
F|-12-12-12121212-9-9-9-9999\7-7-7-7777-77-7777-77-5-5-5555/9-9-9-9999\7-7-7-7-----|
C|-10-10-10101010-9-9-9-9999\7-7-7-7777-77-7777-77-5-5-5555/9-9-9-9999\7-7-7-7(x9)-|
G|-10-10-10101010-7-7-7-7777\5-5-5-5555-55-5555-55-3-3-3333/7-7-7-7777\5-5-5-5-----|
C|-10-10-10101010------------------------------------------------------------------|
   "How it feels to be me.
    How it feels to be knocked down."

Chorus 2
--------
D|-------------------------------------------------------------------------|
A|----------5-5-5-5555------------------------------------------------8-88-|
F|-5-5-5555-4-4-4-4444--------11/12\11-1111--------7/9\7-77--5-5-5555-7-77-|
C|-5-5-5555-2-2-2-2222---------x/x \x---x-x--------x/x\x-xx--5-5-5555-5-55-|
G|-3-3-3333-2-2-2-2222-00-0-0--9/10\9---9-9-00-0-0-5/7\5-55--3-3-3333-5-55-|
C|----------2-2-2-2222-00-0-0---------------00-0-0--------------------5-55-|       
                     pm.. . .               .. . . 
   "And i'm here now feeling the pain of a thousand hearts
    Been to hell and back again. You canīt take this."

Pre-Solo
--------
D|--------------------------------------------------------------------------|
A|--------------------------------------------------------------------------|
F|--------11/12\11-1111--------7/9\7-77--------11/12\11-1111-------7/9-9999-|
C|---------x/x \x---x-x--------x/x\x-xx---------x/x \x--x-x--------x/x-xxxx-|
G|-00-0-0--9/10\9---9-9-00-0-0-5/7\5-55-00-0-0--9/10\9--9-9-00-0-0-5/7-7777-|
C|-00-0-0---------------00-0-0----------00-0-0--------------00-0-0----------|
 pm.. . .               .. . .          .. . .              .. . .

D|--------------------------------------------|
A|--------------------------------------------|
F|---------11/12\11-1111--------11/12/14-1414-|
C|----------x/ x\x---x-x---------x/ x/ x--x-x-|
G|-00-0-0---9/10\9---9-9-00-0-0--9/10/12-1212-|
C|-00-0-0----------------00-0-0---------------|
                                    x2 times
  "Remember.
   This feeling."

Solo
----
D|--------------------------15-14~-----|
A|-13~--13-15-13-12~--12-13-------15~--|
F|-------------------------------------|
C|-------------------------------------|
G|-------------------------------------|
C|-------------------------------------|
              t
D|--14-----------------------------15-14-|
A|-----15-15-13-13-12-15~-15-13-12-------|
F|---------------------------------------|
C|---------------------------------------|
G|---------------------------------------|
C|---------------------------------------|

D|------------------------------------|
A|-15-12------------------------------|
F|-------14-12-11h12-12/14~-----11p12-|
C|--------------------------12~-------|
G|------------------------------------|
C|------------------------------------|
            t  
D|-----------------------------------------------|
A|---------13-13-12-13/15~-10p12-----------------|
F|-9-9-9-9-----------------------11p12-11p12-----|
C|-------------------------------------------12~-|
G|-----------------------------------------------|
C|-----------------------------------------------|

D|---------------------------------------------------------------------|
A|-------------------------------------13--13--------------/1717171717-|
F|------11-11h12-11--10/11---1414141212--11--11-/1717171717------------|
C|-12/14-----------14-----12~------------------------------------------|
G|---------------------------------------------------------------------|
C|---------------------------------------------------------------------|

Pre-Chorus 3
------------
D|-------------------------0-00------------------------|
A|----------55-555---------3-33------------------------|
F|-55-555---44-444---------2-22-7/9-9999-9/11-11111111-|
C|-55-555---22-222-------0-0-00-x/x-xxxx-x/x--x-x-x-x--|
G|-33-333---22-222---12\-0------5/7-7777-7/9--9-9-9-9--|
C|----------22-222---12\-0-----------------------------|
   "How it feels to be knocked down."

D|-------------------0-0000-------------------|
A|------------8-8888-3-3333-------------------|
F|-5-5-5555---7-7777-2-2222-7/9-9999-9/7-7777-|
C|-5-5-5555-5-5-5555-0-0000-x/x-xxxx-x/x-xxxx-|
G|-3-3-3333-5-5-5555-0------5/7-7777-7/5-5555-|
C|----------5-5-5555-0------------------------|
   "Now you see me through my eyes"

Chorus 3
--------
D|---------------------------------------------------------------------------|
A|----------5-5-5-5555--------------------------------------------------8888-|
F|-5-5-5555-4-4-4-4444--------11/12\11-1111--------7/9\7-77--5-5-5555---7777-|
C|-5-5-5555-2-2-2-2222---------x/x-\x---x-x--------x/x\x-xx--5-5-5555-5-5555-|
G|-3-3-3333-2-2-2-2222-00-0-0--9/10\9---9-9-00-0-0-5/7\5-55--3-3-3333-5-5555-|
C|----------2-2-2-2222-00-0-0---------------00-0-0--------------------5-5555-|
                     pm.. . .               .. . .
   "And we're here now feeling the pain of a thousand hearts
    Coming back to life again. We can make it."

Outro
-----
D|---------------------------------------|
A|---------------------------------------|
F|--------4p7-4p5------------4p7-4p5-5~--|
C|----------------7p5--------------------|
G|-00-0-0-------------00-0-0-------------|
C|-00-0-0-------------00-0-0-------------|
 pm.. . .             .. . .  x3 times
   "Remember.
    This feeling."

D|-----------------------------|
A|-----------------------------|
F|--------4p7-4p5--------------|
C|----------------7p5----------|
G|-00-0-0-------------00-0-00--|
C|-00-0-0-------------00-0-00--|
 pm.. . .             .. . ..  
   "Remember."





Comments


Popular 12 Stones tabs & chords
It Was You 1 Chords
World So Cold Chords
Eric's Song Tabs
Games You Play Tabs
In Closing Tabs
Lie To Me 3 Tabs
Photograph Tabs
Speak Your Mind Tabs
The Way I Feel 5 Tabs
Way I Feel Ukulele


Song lyrics



↑ Back to top | Tablatures and chords are parodies/interpretations of the original songs. You may use it for private study, scholarship, research or language learning purposes only
© 2014 AZChords.com Contact us | Privacy policy | DMCA | Add/correct tabs | Request tabs | Top 50 tabs