» » »

12 Stones, Anthem For The Underdog Tabs (ver.1)

Artists:  A B C D E F G H I J K L M N O P Q R S T U V W X Y Z # 

Anthem For The Underdog Tabs (ver.1)

12 Stones Tabs
 Rating:
4.1/5 (13 votes)
Anthem For The Underdog lessons Tabs too difficult? Try these video lessons and learn fast
1
                Anthem For The Underdog -- 12 Stones


Drop D
Capo - 3rd Fret

12 Stones is an amazing band this is definitely one of my 
favorite songs off of the new AFU CD. 
This song is pretty easy. The solo took me about 30 minutes to tab out
so it shouldn't take too long to learn.
Good Luck and have Fun!

Verse 1
-------
e|----------------------------------------------------------------|
B|----------------------------------------------------------------|
G|-2-222222222-6-66666666-----------------------------------------|
D|-2-222222222-6-66666666-2/4-4-4h5p4-4h5p4-4-2/4-4-4h5p4-4h5p4-4-|
A|-0-000000000-4-44444444-2/4-4-4h5p4-4h5p4-4-2/4-4-4h5p4-4h5p4-4-|
D|------------------------2/4-4-4h5p4-4h5p4-4-2/4-4-4h5p4-4h5p4-4-|
							x2 times

   "You say you know just who i am. But you can't imagine.
    What waits for you across the line. You thought you had me."

Pre-Chorus 1
------------
e|-------------|
B|-------------|
G|-----4~--2~--|
D|-5~--4~--2~--|
A|-5~--2~--0~--|
D|-5~----------|
   "But i'm still here standing.
    And i'm tired of backing down."

Chorus 1
--------
e|---------------------------------------------------------|
B|---------------------------------------------------------|
G|-------------4-444444444-2222-2h3p2-2-22-2222------------|
D|-5-555555555-4-444444444-2222------------2222-2h4p2-2-22-|
A|-5-555555555-2-222222222-0000------------0000------------|
D|-5-555555555---------------------------------------------|
			 pm....            ....
   "And i'm here now feeling the pain of a thousand hearts
    Been to hell and back again. I won't take this."

e|-----------------------|
B|-----------------------|
G|-----------------------|
D|-5-55555-55555-0-00000-|
A|-5-55555-55555-0-00000-|
D|-5-55555-55555-0-00000-|

e|------5p2-3p2----------5p2-3p2-3-|
B|--------------5p3----------------|
G|-2222-------------2222-----------|
D|-2222-------------2222-----------|
A|-0000-------------0000-----------|
D|---------------------------------|

Verse 2
-------
e|----------------------------------------------------------------|
B|----------------------------------------------------------------|
G|-2-222222222-6-66666666-----------------------------------------|
D|-2-222222222-6-66666666-2/4-4-4h5p4-4h5p4-4-2/4-4-4h5p4-4h5p4-4-|
A|-0-000000000-4-44444444-2/4-4-4h5p4-4h5p4-4-2/4-4-4h5p4-4h5p4-4-|
D|------------------------2/4-4-4h5p4-4h5p4-4-2/4-4-4h5p4-4h5p4-4-|
							x2 times
   "You try so hard to bring me down. you can't break the broken.
    You still don't seem to understand. It's your turn to see just."

Pre-Chorus 2
------------
e|-------------|
B|-------------|
G|-----4~--2~--|
D|-5~--4~--2~--|
A|-5~--2~--0~--|
D|-5~----------|

   "How it feels to be me.
    How it feels to be knocked down."
Chorus 2
--------
e|---------------------------------------------------------|
B|---------------------------------------------------------|
G|-------------4-444444444-2222-2h3p2-2-22-2222------------|
D|-5-555555555-4-444444444-2222------------2222-2h4p2-2-22-|
A|-5-555555555-2-222222222-0000------------0000------------|
D|-5-555555555---------------------------------------------|
			 pm....            ....
   "And i'm here now feeling the pain of a thousand hearts
    Been to hell and back again."

e|-----------------------|
B|-----------------------|
G|-----------------------|
D|-5-55555-55555-0-00000-|
A|-5-55555-55555-0-00000-|
D|-5-55555-55555-0-00000-|
   "You can't take this."

e|------5p2-3p2----------5p2-3p2-3-|
B|--------------5p3----------------|
G|-2222-------------2222-----------|
D|-2222-------------2222-----------|
A|-0000-------------0000-----------|
D|---------------------------------|

Pre-Solo
--------
e|------------------------------------------------------------|
B|------------------------------------------------------------|
G|-2222-2h3p2-222-2222-----------2222-2h3p2-222-2222-2h3-4444-|
D|-2222-----------2222-2h4p2-222-2222-----------2222----------|
A|-0000-----------0000-----------0000-----------0000----------|
D|------------------------------------------------------------|
 pm....            ....		 ....		....
						       x2 times

  "Remember.
   This feeling."

Solo
----
e|-------------------10-9----|
B|-8--8-10-8-7--7-8-------10-|
G|---------------------------|
D|---------------------------|
A|---------------------------|
D|---------------------------|

e|----------------------10-9-|
B|-8--8-7-8-10--10-8-7-------|
G|---------------------------|
D|---------------------------|
A|---------------------------|
D|---------------------------|

e|-------------------------|
B|-10-7--------------------|
G|-------9-7-6h7-7h9---7p6-|
D|-------------------7-----|
A|-------------------------|
D|-------------------------|

e|------------------------------------|
B|---------8-8-8-7-10-7p5-------------|
G|-4-4-4-4-----------------7p6-7p6----|
D|----------------------------------7-|
A|------------------------------------|
D|------------------------------------|

e|-----------------------------------------|
B|-----------------------------------------|
G|-----4h6-6h7-6-4-4h6---9-9-9-7-7-7-6-6-6-|
D|-7h9-----------------7-------------------|
A|-----------------------------------------|
D|-----------------------------------------|

Pre-Chorus 3
------------
e|------------------------------------|
B|------------------------------------|
G|--------44444s-22222222222222222222-|
D|-55555s-44444s-22222222222222222222-|
A|-55555s-22222s-00000000000000000000-|
D|-55555s-----------------------------|
   "How it feels to be knocked down."
e|----------------------------------------|
B|----------------------------------------|
G|----------44444444-22222222222222222222-|
D|-55555555-44444444-22222222222222222222-|
A|-55555555-22222222-00000000000000000000-|
D|-55555555-------------------------------|
   "Now you see me through my eyes"
Chorus 3
--------
e|---------------------------------------------------------|
B|---------------------------------------------------------|
G|-------------4-444444444-2222-2h3p2-2-22-2222------------|
D|-5-555555555-4-444444444-2222------------2222-2h4p2-2-22-|
A|-5-555555555-2-222222222-0000------------0000------------|
D|-5-555555555---------------------------------------------|
			 pm....            ....
   "And we're here now feeling the pain of a thousand hearts
    Coming back to life again."
e|-----------------------------|
B|-----------------------------|
G|-----------------------------|
D|-5-55555-55555-0-00000-00000-|
A|-5-55555-55555-0-00000-00000-|
D|-5-55555-55555-0-00000-00000-|
   "We can make it."
Outro
-----
e|------5p2-3p2----------5p2-3p2-3-|
B|--------------5p3----------------|
G|-2222-------------2222-----------|
D|-2222-------------2222-----------|
A|-0000-------------0000-----------|
D|---------------------------------|
 pm....             ....    x2 times
   "Remember.
    This feeling."

e|------5p2-3p2-----------|
B|--------------5p3-------|
G|-2222-------------22222-|
D|-2222-------------22222-|
A|-0000-------------00000-|
D|------------------------|
 pm....             .....
   "Remember."
            
Submit corrections

comments powered by Disqus
↑ Back to top | 12 Stones Tabs for Anthem For The Underdog. Lyrics for acoustic guitar and electric guitar. 1 Tablatures and chords are parodies/interpretations of the original songs. You may use it for private study, scholarship, research or language learning purposes only