» » »

12 Stones, Anthem For The Underdog Bass tabs (ver.1)

Artists:  A B C D E F G H I J K L M N O P Q R S T U V W X Y Z # 

Anthem For The Underdog Bass tabs (ver.1)

12 Stones Tabs
Rating:
4.5/5 (2 votes)
Anthem For The Underdog lessons Tabs too difficult? Try these video lessons and learn fast
                -------------------------------------------------------------------------------
-------------------------------------------------------------------------------


Tuning:CGCF


  Verse
G|---------------------------------------------------------------------------|
D|---------------------------------------------------------------------------|
A|---------------------------------------------------------------------------|
E|-0h9-9-9-9-10p9-0h10p9-----------------------------------------------------|

  Chorus
G|---------------------------------------------------------------------------|
D|---------------------------------------------------------------------------|
A|-3-3-3-3-3-3-3-------------------------------------------------------------|
E|---------------2-2-2-2-2-2---0-0-0-0-0--0-0-0-0-0--------------------------|

G|---------------------------------------------------------------------------|
D|---------------------------------------------------------------------------|
A|-3-3-3-3-3-3-3-------------------------------------------------------------|
E|---------------5-5-5-5-5-5---0-0-0-0-0--0-0-0-0-0--0-0-0-0-0--0-0-0-0-0----|

  Bridge First Part
G|---------------------------------------------------------------------------|
D|---------------------------------------------------------------------------|
A|---------3h5-5-5-5---------------------------------------------------------|
E|-0-0-0-0-------------------------------------------------------------------|

  2nd Part (under the solo)
G|---------------------------------------------------------------------------|
D|---------------------------------------------------------------------------|
A|-3-3-3-3-3-3--------------------------5/7-7-7-7/9--------------------------|
E|-------------2-2-2-2-2-2---0-0-0-0-0---------------------------------------|

G|---------------------------------------------------------------------------|
D|---------------------------------------------------------------------------|
A|-3-3-3-3-3-3--------------------------5/7-7-7-7p5-5-5----------------------|
E|-------------5-5-5-5-5-5---0-0-0-0-0---------------------------------------|

  The Stops part
G|---------------------------------------------------------------------------|
D|---------------------------------------------------------------------------|
A|-3-3-3-3-3-----------------------------------------------------------------|
E|-------------2-2-2-2-2-----------------------------------------------------|

Once again, pretty simple. Listen to the song for the rythm and whatnot, but those are the notes.
And it is 100000% correct. I promise.


| /  slide up
| \  slide down
| h  hammer-on
| p  pull-off
| ~  vibrato
| +  harmonic
| x  Mute note
===============================================================================
            

comments powered by Disqus
↑ Back to top | 12 Stones Bass for Anthem For The Underdog. Lyrics for acoustic guitar and electric guitar. Tablatures and chords are parodies/interpretations of the original songs. You may use it for private study, scholarship, research or language learning purposes only