» » »

10 Years, Shoot It Out Tabs (ver.2)

Artists:  A B C D E F G H I J K L M N O P Q R S T U V W X Y Z # 

Shoot It Out Tabs (ver.2)

10 Years Tabs
 Rating:
3.4/5 (5 votes)
Shoot It Out lessons Tabs too difficult? Try these video lessons and learn fast
                Pretty difficult song to tab actually so comment me with any corrections and please rate!

----------------------------

10 Years
“Shoot It Out”
Feeding the Wolves

Drop C# (C#,G#,C#,F#,A#,D#)
Novice Level


Tempo - Q=164



(0:00)
“Shoot it, shoot it out ‘cause they want it, want it now, now,
Shoot it, shoot it out ‘cause they want it, want it now...”


VERSE 1---
Guitar 1:
(0:05)
“Shoot it, shoot it out ‘cause they want it, want it now, now,
“Shoot it, shoot it out ‘cause they want it, want it now...”
|-----------------------------------------------------------------|
|-------------6-----6-----6-------------------6-----6-----6---6---|
|-8-8-8-7-7-7---7-7---7-7---7-7-7-8-8-8-7-7-7---7-7---7-7---7---7-|
|-----------------------------------------------------------------|
|-----------------------------------------------------------------|
|-----------------------------------------------------------------|
  . . . . . .   . .   . .   . . . . . . . . .   . .   . .   .   .

(0:11)
“Shoot it, shoot it out ‘cause they want it a little more,
“You can be rest assured...”
|-----------------------------------------------------------------|
|-------------5-----6-----6-------------------6-----6-----6-6-6-6-|
|-8-8-8-7-7-7---7-7---7-7---7-7-7-8-8-8-7-7-7---7-7---7-7-7-7-7-7-|
|-----------------------------------------------------------------|
|-----------------------------------------------------------------|
|-----------------------------------------------------------------|
  . . . . . .   . .   . .   . . . . . . . . .   . .   . .        

(0:17)
“You give ‘em all you got and you give ‘em a little more,
You never even know what for...”
|-----------------------------------------------------------------|
|-------------6-----6-----6-------------------6-----6-------------|
|-8-8-8-7-7-7---7-7---7-7---7-7-7-8-8-8-7-7-7---7-7---7-7-7-7-7-7-|
|-----------------------------------------------------------------|
|-----------------------------------------------------------------|
|-----------------------------------------------------------------|
  . . . . . .   . .   . .   . . . . . . . . .   . .   . .        

(0:22)
“They feed and they suck until you’re unconscious,
“It’s never enough, they kill your subconscious...”
|-----------------------------------------------------------------|
|-------------6-----6-----6-----------------------6-6-6-6-6-6-6-6-|
|-8-8-8-7-7-7---7-7---7-7---7-7-7-8-8-8-7-7-7-7-7-7-7-7-7-7-7-7-7-|
|-----------------------------------------------------------------|
|-----------------------------------------------------------------|
|-----------------------------------------------------------------|
  . . . . . .   . .   . .   . . . . . . . . .   .                 


Guitar 2:
(0:05)
|-----------------------------------------------------------------|
|-----------------------------------------------------------------|
|-----------------------------------------------------------------|
|-1-1-1-0-0-0-0-0-0-0-0-0-0-0-0-0-1-1-1-0-0-0-0-0-0-0-0-0-0-0-0-0-|
|-----------------------------------------------------------------|
|-----------------------------------------------------------------|
  . . . . . . . . . . . . . . . . . . . . . . . . . . . . . . . . 

(0:11)
|-----------------------------------------------------------------|
|-----------------------------------------------------------------|
|-----------------------------------------------------------------|
|-1-1-1-0-0-0-0-0-0-0-0-0-0-0-0-0-1-1-1-0-0-0-0-0-0-0-0-0-0-0-0-0-|
|-----------------------------------------------------------------|
|-----------------------------------------------------------------|
  . . . . . . . . . . . . . . . . . . . . . . . . . . . . . . . . 

(0:17)
|-----------------------------------------------------------------|
|-----------------------------------------------------------------|
|-----------------------------------------------------------------|
|-1-1-1-0-0-0-0-0-0-0-0-0-0-0-0-0-1-1-1-0-0-0-0-0-0-0-0-0-0-0-0-0-|
|-----------------------------------------------------------------|
|-----------------------------------------------------------------|
  . . . . . . . . . . . . . . . . . . . . . . . . . . . . . . . . 

(0:22)
|-----------------------------------------------------------------|
|-----------------------------------------------------------------|
|-----------------------------------------------------------------|
|-1-1-1-0-0-0-0-0-0-0-0-0-0-0-0-0-1-1-1-0-0-0-0-0-0-0-0-0-0-0-0-0-|
|-----------------------------------------------------------------|
|-----------------------------------------------------------------|
  . . . . . . . . . . . . . . . . . . . . . . . . . . . . . . . . 



PRECHORUS---
Both guitars: [with some weird effect...]
(0:27)
“I’m ready to die...”
|---------------------------------------------------------|
|---------------------------------------------------------|
|---------------------------------------------------------|
|---------------------------------------------------------|
|-----3-----------------------------3---------------------|
|-0-1---0-1-0~~---1-3-0-1-0~~---0-1---0-1-0~~---1-3-0-1-0-|



CHORUS---
Both guitars:
(0:33)
“Will you kill what’s left of me to stop the bleeding?...”
|-------------------------------------------------------|
|-------------------------------------------------------|
|-------------------------------------------------------|
|-5~--5-5-5~-\\-3~--3-3--3-//--8~--8-8-8~-\\-1~--1-1--1-|
|-5~--5-5-5~-\\-3~--3-3--3-//--8~--8-8-8~-\\-1~--1-1--1-|
|-5~--5-5-5~-\\-3~--3-3--3-//--8~--8-8-8~-\\-1~--1-1--1-|

(0:39)
“Shoot it, shoot it out ‘cause they want it, want it now, now,
“Shoot it, shoot it out ‘cause they want it, want it now, now...”
|---------------------------------------------------------|
|---------------------------------------------------------|
|---------------------------------------------------------|
|---------------------------------------------------------|
|-----3-----------------------------3---------------------|
|-0-1---0-1-0~-0~-1-3-0-1-0~~---0-1---0-1-0~-0~-1-3-0-1-0-|

(0:45)
“Suffocate integrity till I’m not breathing...”
|-------------------------------------------------------|
|-------------------------------------------------------|
|-------------------------------------------------------|
|-5~--5-5-5~-\\-3~--3-3--3-//--8~--8-8-8~-\\-1~--1-1--1-|
|-5~--5-5-5~-\\-3~--3-3--3-//--8~--8-8-8~-\\-1~--1-1--1-|
|-5~--5-5-5~-\\-3~--3-3--3-//--8~--8-8-8~-\\-1~--1-1--1-|

(0:50)
“Shoot it, shoot it out, ‘cause they want it, want it, now, now,
“Shoot it, shoot it out, ‘cause they want it, want it, now, now...”
|---------------------------------------------------------|
|---------------------------------------------------------|
|---------------------------------------------------------|
|---------------------------------------------------------|
|-----3-----------------------------3---------------------|
|-0-1---0-1-0~-0~-1-3-0-1-0~~---0-1---0-1-0~-0~-1-3-0-1-0-|



POSTCHORUS---
Guitar 1:
(0:56)
“Feed ‘em, f**kin’ starve ‘em, keep begging a little more,
“Feed ‘em, f**kin’ starve ‘em, keep begging a little more...”
|-----------------------------------------------------------------|
|-------------6-----6-----6---6-----------------------------------|
|-8-8-8-7-7-7---7-7---7-7---7---7-8-8-8-8-7-8-7-7-7-7-7-7-7-7-7-7-|
|-----------------------------------------------------------------|
|-----------------------------------------------------------------|
|-----------------------------------------------------------------|
  . . . . . .   . .   . .   .   . . . . . . . .

Guitar 2:
|-----------------------------------------------------------------|
|-----------------------------------------------------------------|
|-----------------------------------------------------------------|
|-1-1-1-0-0-0-0-0-0-0-0-0-0-0-0-0-1-1-1-0-0-0-0-0-0-0-0-0-0-0-0-0-|
|-----------------------------------------------------------------|
|-----------------------------------------------------------------|
  . . . . . . . . . . . . . . . . . . . . . . . . . . . . . . . .



VERSE 2---
Guitar 1:
(1:02)
“Feed ‘em, f**kin’ starve ‘em, keep begging a little more,
“I’m not gonna be your whore...”
|-----------------------------------------------------------------|
|-------------6-----6-----6---6-----------------------------------|
|-8-8-8-7-7-7---7-7---7-7---7---7-8-8-8-8-7-8-7-7-7-7-7-7-7-7-7-7-|
|-----------------------------------------------------------------|
|-----------------------------------------------------------------|
|-----------------------------------------------------------------|
  . . . . . .   . .   . .   .   . . . . . . . . . . . . . . . . .

(1:08)
“Load it, cock it, pull it, refuse to be ignored,
“I’m not gonna fight your war...”
|-----------------------------------------------------------------|
|-------------6-----6-----6---6-----------------------------------|
|-8-8-8-7-7-7---7-7---7-7---7---7-8-8-8-8-7-8-7-7-7-7-7-7-7-7-7-7-|
|-----------------------------------------------------------------|
|-----------------------------------------------------------------|
|-----------------------------------------------------------------|
  . . . . . .   . .   . .   .   . . . . . . . . . . . . . . . . .

(1:14)
“All the distractions kill the compassion,
“Suddenly fame has lost its attraction...”
|-----------------------------------------------------------------|
|-------------6-----6-----6---6-----------------------------------|
|-8-8-8-7-7-7---7-7---7-7---7---7-8-8-8-8-7-8-7-7-7-7-7-7-7-7-7-7-|
|-----------------------------------------------------------------|
|-----------------------------------------------------------------|
|-----------------------------------------------------------------|
  . . . . . .   . .   . .   .   . . . . . . . . . . . . . . . . . 

Guitar 2:
(1:02)
|-----------------------------------------------------------------|
|-----------------------------------------------------------------|
|-----------------------------------------------------------------|
|-1-1-1-0-0-0-0-0-0-0-0-0-0-0-0-0-1-1-1-0-0-0-0-0-0-0-0-0-0-0-0-0-|
|-----------------------------------------------------------------|
|-----------------------------------------------------------------|
  . . . . . . . . . . . . . . . . . . . . . . . . . . . . . . . .

(1:08)
|-----------------------------------------------------------------|
|-----------------------------------------------------------------|
|-------------------0-----0---0---------------------0-----0---0---|
|-1-1-1-0-0-0-0-0-0-0-0-0-0-0-0-0-1-1-1-0-0-0-0-0-0-0-0-0-0-0-0-0-|
|-----------------------------------------------------------------|
|-----------------------------------------------------------------|
  . . . . . . . . .   . .   .   . . . . . . . . . .   . .   .   .

(1:14)
|-----------------------------------------------------------------|
|-----------------------------------------------------------------|
|-------------------0-----0---0---------------------0-----0---0---|
|-1-1-1-0-0-0-0-0-0-0-0-0-0-0-0-0-1-1-1-0-0-0-0-0-0-0-0-0-0-0-0-0-|
|-----------------------------------------------------------------|
|-----------------------------------------------------------------|
  . . . . . . . . .   . .   .   . . . . . . . . . .   . .   .   .



PRECHORUS---
Both guitars: [with some weird effect...]
(1:20)
“I’m ready to die...”
|---------------------------------------------------------|
|---------------------------------------------------------|
|---------------------------------------------------------|
|---------------------------------------------------------|
|-----3-----------------------------3---------------------|
|-0-1---0-1-0~~---1-3-0-1-0~~---0-1---0-1-0~~---1-3-0-1-0-|



CHORUS---
Both guitars:
(1:25)
“Will you kill what’s left of me to stop the bleeding?...”
|-------------------------------------------------------|
|-------------------------------------------------------|
|-------------------------------------------------------|
|-5~--5-5-5~-\\-3~--3-3--3-//--8~--8-8-8~-\\-1~--1-1--1-|
|-5~--5-5-5~-\\-3~--3-3--3-//--8~--8-8-8~-\\-1~--1-1--1-|
|-5~--5-5-5~-\\-3~--3-3--3-//--8~--8-8-8~-\\-1~--1-1--1-|

(1:31)
“Shoot it, shoot it out ‘cause they want it, want it now, now,
“Shoot it, shoot it out ‘cause they want it, want it now, now...”
|---------------------------------------------------------|
|---------------------------------------------------------|
|---------------------------------------------------------|
|---------------------------------------------------------|
|-----3-----------------------------3---------------------|
|-0-1---0-1-0~-0~-1-3-0-1-0~~---0-1---0-1-0~-0~-1-3-0-1-0-|

(1:36)
“Suffocate integrity till I’m not breathing...”
|-------------------------------------------------------|
|-------------------------------------------------------|
|-------------------------------------------------------|
|-5~--5-5-5~-\\-3~--3-3--3-//--8~--8-8-8~-\\-1~--1-1--1-|
|-5~--5-5-5~-\\-3~--3-3--3-//--8~--8-8-8~-\\-1~--1-1--1-|
|-5~--5-5-5~-\\-3~--3-3--3-//--8~--8-8-8~-\\-1~--1-1--1-|

(1:42)
“Shoot it, shoot it out ‘cause they want it, want it now, now,
“Shoot it, shoot it out ‘cause they want it, want it now, now...”
|---------------------------------------------------------|
|---------------------------------------------------------|
|---------------------------------------------------------|
|---------------------------------------------------------|
|-----3-----------------------------3---------------------|
|-0-1---0-1-0~-0~-1-3-0-1-0~~---0-1---0-1-0~-0~-1-3-0-1-0-|



BRIDGE Part 1---
Both guitars:
(1:48)
“Feeding the wolves, don’t you know better?...”
|---------------------------------------------|
|---------------------------------------------|
|---------------------------------------------|
|-1-1-1-0-0-0-0-----------------1-1-1-0-0-0-0-|
|-1-1-1-0-0-0-0-----------------1-1-1-0-0-0-0-|
|-1-1-1-0-0-0-0-----------------1-1-1-0-0-0-0-|

(1:53)
“Feeding the wolves, the taste of blood is bitter...”
|-------------------------------------------------|
|--------------------------natural harmonics------|
|-------------------------------------------5*~~~-|
|-1-1-1-0-0-0-0-----------------1-1-1-0-0-0-5*~~~-|
|-1-1-1-0-0-0-0-----------------1-1-1-0-0-0-5*~~~-|
|-1-1-1-0-0-0-0-----------------1-1-1-0-0-0-5*~~~-|

(1:59)
|-----------------------------------------------------------------|
|-----------------------------------------------------------------|
|-----------------------------------------------------------------|
|-----------------------------------------------------------------|
|-----3-------------------------------3---------------------------|
|-0-1---0-1-0-0-0-0-1-3-0-1-0-0-0-0-1---0-1-0-0-0-0-1-3-0-1-0-0-0-|
  . . . . . . . . . . . . . . . . . . . . . . . . . . . . . . . . 

(2:05)
|-----------------------------------------------------------------|
|-----------------------------------------------------------------|
|-----------------------------------------------------------------|
|-----------------------------------------------------------------|
|-----3-------------------------------3---------------------------|
|-0-1---0-1-0-0-0-0-1-3-0-1-0-0-0-0-1---0-1-0-0-0-0-1-3-0-1-0-0-0-|
  . . . . . . . . . . . . . . . . . . . . . . . . . . . . . . . .



BRIDGE Part 2---
Guitar 1:
(2:10)
|-------------------------------------|
|-------------------------------------|
|-7-7-7-7-7-7-9-9-9-9-10-10-10-10-9-9-|
|-x-x-x-x-x-x-x-x-x-x--x--x--x--x-x-x-|
|-5-5-5-5-5-5-7-7-7-7--8--8--8--8-7-7-|
|-------------------------------------|

(2:13)
|-------------------------------------------------|
|-------------------------------------------------|
|-10-10-10-10-10-10-12-12-12-12-14-14-14-14-12-12-|
|--x--x--x--x--x--x--x--x--x--x--x--x--x--x--x--x-|
|--8--8--8--8--8--8-10-10-10-10-12-12-12-12-10-10-|
|-------------------------------------------------|

(2:16)
|-------------------------------------------------|
|-------------------------------------------------|
|-14-14-14-14-14-14-15-15-15-15-17-17-17-17-15-15-|
|--x--x--x--x--x--x--x--x--x--x--x--x--x--x--x--x-|
|-12-12-12-12-12-12-13-13-13-13-15-15-15-15-13-13-|
|-------------------------------------------------|

(2:19)
|-------------------gradually bend these.........-|
|-------------------------------------------------|
|-17-17-17-17-17-17-19-19-19-19-19-19-19-19-19-19-|
|--x--x--x--x--x--x--x--x--x--x--x--x--x--x--x--x-|
|-15-15-15-15-15-15-17-17-17-17-17-17-17-17-17-17-|
|-------------------------------------------------|


Guitar 2:
(2:10)
|-----------------------------------------------------------------|
|-----------------------------------------------------------------|
|-----------------------------------------------------------------|
|-----------------------------------------------------------------|
|-----3-------------------------------3---------------------------|
|-0-1---0-1-0-0-0-0-1-3-0-1-0-0-0-0-1---0-1-0-0-0-0-1-3-0-1-0-0-0-|
 
(2:13)
|-----------------------------------------------------------------|
|-----------------------------------------------------------------|
|-----------------------------------------------------------------|
|-----------------------------------------------------------------|
|-----3-------------------------------3---------------------------|
|-0-1---0-1-0-0-0-0-1-3-0-1-0-0-0-0-1---0-1-0-0-0-0-1-3-0-1-0-0-0-|

(2:16)
|-----------------------------------------------------------------|
|-----------------------------------------------------------------|
|-----------------------------------------------------------------|
|-----------------------------------------------------------------|
|-----3-------------------------------3---------------------------|
|-0-1---0-1-0-0-0-0-1-3-0-1-0-0-0-0-1---0-1-0-0-0-0-1-3-0-1-0-0-0-|

(2:19)
|-----------------------------------------------------------------|
|-----------------------------------------------------------------|
|-----------------------------------------------------------------|
|-----------------------------------------------------------------|
|-----3-------------------------------3---------------------------|
|-0-1---0-1-0-0-0-0-1-3-0-1-0-0-0-0-1---0-1-0-0-0-0-1-3-0-1-0-0-0-|



CHORUS---
Both guitars:
(2:22)
“Will you kill what’s left of me to stop the bleeding?...”
|-------------------------------------------------------|
|-------------------------------------------------------|
|-------------------------------------------------------|
|-5~--5-5-5~-\\-3~--3-3--3-//--8~--8-8-8~-\\-1~--1-1--1-|
|-5~--5-5-5~-\\-3~--3-3--3-//--8~--8-8-8~-\\-1~--1-1--1-|
|-5~--5-5-5~-\\-3~--3-3--3-//--8~--8-8-8~-\\-1~--1-1--1-|

(2:27)
“Shoot it, shoot it out ‘cause they want it, want it now, now...”
|---------------------------------------------------------|
|---------------------------------------------------------|
|---------------------------------------------------------|
|---------------------------------------------------------|
|-----3-----------------------------3---------------------|
|-0-1---0-1-0~-0~-1-3-0-1-0~~---0-1---0-1-0~-0~-1-3-0-1-0-|

(2:33)
“Suffocate integrity till I’m not breathing...”
|-------------------------------------------------------|
|-------------------------------------------------------|
|-------------------------------------------------------|
|-5~--5-5-5~-\\-3~--3-3--3-//--8~--8-8-8~-\\-1~--1-1--1-|
|-5~--5-5-5~-\\-3~--3-3--3-//--8~--8-8-8~-\\-1~--1-1--1-|
|-5~--5-5-5~-\\-3~--3-3--3-//--8~--8-8-8~-\\-1~--1-1--1-|

(2:38)
“Shoot it, shoot it out ‘cause they want it, want it now, now...”
|---------------------------------------------------------|
|---------------------------------------------------------|
|---------------------------------------------------------|
|---------------------------------------------------------|
|-----3-----------------------------3---------------------|
|-0-1---0-1-0~-0~-1-3-0-1-0~~---0-1---0-1-0~-0~-1-3-0-1-0-|


OUTRO---
Both guitars:
(2:44)
“SHOOT IT, SHOOT IT OUT ‘CAUSE THEY WANT IT, WANT IT, NOW, NOW!
“SHOOT IT, SHOOT IT OUT ‘CAUSE THEY WANT IT, WANT IT NOW!!!!!!”
|-----------------------------------------------------------------|
|-----------------------------------------------------------------|
|-----------------------------------------------------------------|
|---------------------------------------------------------1-1---1-|
|-----3-------------------------------3-------------------1-1---1-|
|-0-1---0-1-0-0-0-0-1-3-0-1-0-0-0-0-1---0-1-0-0-0-0-1-3-0-1-1---1-|

(2:50)
|--------------|
|--------------|
|--------------|
|-0~~~~~~~~----|
|-0~~~~~~~~----|
|-0~~~~~~~~----|
            
Submit corrections

comments powered by Disqus
↑ Back to top | 10 Years Tabs for Shoot It Out. Lyrics for acoustic guitar and electric guitar. Tablatures and chords are parodies/interpretations of the original songs. You may use it for private study, scholarship, research or language learning purposes only