>
 >
Shoot It Out

Shoot It Out Guitar Tabs

10 Years - Shoot It Out chords, tabs, tablatures, lyrics

Guitar lessons | Add/correct | Request | Top 50 tabs Artists:  A B C D E F G H I J K L M N O P Q R S T U V W X Y Z 0-9

Shoot It Out Guitar Tabs – 10 Years

CD, Sheet music, Poster

Do you like Shoot It Out? Share with your friends now
Bass TabsTabsTabs v2Tabs v3Tabs v4
----------------------------------------------------------------------------
----------------------------------------------------------------------------

Tuning: Drop C#

Intro/Verse 1:

Lead Guitar (play 4 times)

d#|------------------------------------------------------------------------|
A#|------------------------------------------------------------------------|
F#|----7-----7-----10---10-----10---10----7-----7-----10---10-----10---10--|
C#|------------0-0----0----0-0----0---------------0-0----0----0-0----0-----|
G#|--6---6-6----------------------------6---6-6----------------------------|
C#|------------------------------------------------------------------------|

Rhythm Guitar (play 4 times)

d#|------------------------------------------------------------------------|
A#|------------------------------------------------------------------------|
F#|------------------------------------------------------------------------|
C#|------------------------------------------------------------------------|
G#|--6-6-6-6-5-5-5-5-5-5-5-5-5-5-5-5-6-6-6-6-5-5-5-5-5-5-5-5-5-5-5-5-------|
C#|------------------------------------------------------------------------|
 pm  x x x x x x x x x   x x x   x   x x x x x x x x x   x x x   x

Pre-Chorus:

d#|------------------------------------------------------------------------|
A#|------------------------------------------------------------------------|
F#|------------------------------------------------------------------------|
C#|------------------------------------------------------------------------|
G#|------------------------------------------------------------------------|
C#|--0--1-3-0-1-0--0--1-3-0-1-0--0--1-3-0-1-0--0--1-3-0-1-0----------------|

Chorus: (play twice)

d#|------------------------------------------------------------------------|
A#|------------------------------------------------------------------------|
F#|------------------------------------------------------------------------|
C#|--5---5--5-5-3---3--3-3-8---8--8-8-1---1--1-1-1-------------------------|
G#|--5---5--5-5-3---3--3-3-8---8--8-8-1---1--1-1-1-------------------------|
C#|--5---5--5-5-3---3--3-3-8---8--8-8-1---1--1-1-1-------------------------|

d#|------------------------------------------------------------------------|
A#|------------------------------------------------------------------------|
F#|------------------------------------------------------------------------|
C#|------------------------------------------------------------------------|
G#|------------------------------------------------------------------------|
C#|--0--1-3-0-1-0--0--1-3-0-1-0--0--1-3-0-1-0--0--1-3-0-1-0----------------|

Verse 2:

Lead Guitar (play twice)

d#|------------------------------------------------------------------------|
A#|------------------------------------------------------------------------|
F#|----7-----7-----10---10-----10---10----7-----7-----10---10-----10---10--|
C#|------------0-0----0----0-0----0---------------0-0----0----0-0----0-----|
G#|--6---6-6----------------------------6---6-6----------------------------|
C#|------------------------------------------------------------------------|

d#|------------------------------------------------------------------------|
A#|------------------------------------------------------------------------|
F#|----7-----7-----10---10-----10---10----7-----7-----7---7h8p7------------|
C#|------------0-0----0----0-0----0---------------0-0---0-------8-7-8-7----|
G#|--6---6-6----------------------------6---6-6----------------------------|
C#|------------------------------------------------------------------------|


Rhythm Guitar

d#|------------------------------------------------------------------------|
A#|------------------------------------------------------------------------|
F#|------------------------------------------------------------------------|
C#|------------------------------------------------------------------------|
G#|--6-6-6-6-5-5-5-5-5-5-5-5-5-5-5-5-6-6-6-6-5-5-5-5-5-5-5-5-5-5-5-5-------|
C#|------------------------------------------------------------------------|
 pm  x x x x x x x x x   x x x   x   x x x x x x x x x   x x x   x

d#|------------------------------------------------------------------------|
A#|------------------------------------------------------------------------|
F#|------------------------------------------------------------------------|
C#|------------------------------------------------------------------------|
G#|--6-6-6-6-5-5-5-5-5-5-5-5-5-5-5-5-6-6-6-6-5-5-5-5-5-5-5-5-5-5-5-5-------|
C#|------------------------------------------------------------------------|
 pm  x x x x x x x x x   x x x   x   x x x x x x x x x   x x x   x

d#|------------------------------------------------------------------------|
A#|--------------------6-----6---6---------------------6-----6---6---------|
F#|--------------------7-----7---7---------------------7-----7---7---------|
C#|----------0-0-0-0-0-0-0-0-0-0-0-----------0-0-0-0-0-0-0-0-0-0-0---------|
G#|--6-6-6-6-------------------------6-6-6-6-------------------------------|
C#|------------------------------------------------------------------------|
 pm  x x x x x x x x x x   x x   x   x x x x x   x x x   x x   x   

d#|------------------------------------------------------------------------|
A#|--------------------6-----6---6---------------------6-----6---6---------|
F#|--------------------7-----7---7---------------------7-----7---7---------|
C#|----------0-0-0-0-0-0-0-0-0-0-0-----------0-0-0-0-0-0-0-0-0-0-0---------|
G#|--6-6-6-6-------------------------6-6-6-6-------------------------------|
C#|------------------------------------------------------------------------|
 pm  x x x x x x x x x x   x x   x   x x x x x   x x x   x x   x

Pre-Chorus

Chorus

Bridge 1:

d#|------------------------------------------------------------------------|
A#|------------------------------------------------------------------------|
F#|------------------------------------------------------------------------|
C#|--1-1-1-0-0-0-0-------------------1-1-1-0-0-0-0-------------------------|
G#|--1-1-1-0-0-0-0-------------------1-1-1-0-0-0-0-------------------------|
C#|--1-1-1-0-0-0-0-------------------1-1-1-0-0-0-0-------------------------|

d#|------------------------------------------------------------------------|
A#|------------------------------------------------------------------------|
F#|------------------------------------------------------------------------|
C#|--1-1-1-0-0-0-0-------------------1-1-1-0-0-0-(5)-----------------------|
G#|--1-1-1-0-0-0-0-------------------1-1-1-0-0-0-(5)-----------------------|
C#|--1-1-1-0-0-0-0-------------------1-1-1-0-0-0-(5)-----------------------|

Bridge 2:

Rhythm Guitar (palm muted) play twice

d#|------------------------------------------------------------------------|
A#|------------------------------------------------------------------------|
F#|------------------------------------------------------------------------|
C#|------------------------------------------------------------------------|
G#|------------------------------------------------------------------------|
C#|--0-1-3-0-1-0-0-0-0-1-3-0-1-0-0-0-0-1-3-0-1-0-0-0-0-1-3-0-1-0-0-0-------|
  pm x x x x x x x x x x x x x x x x x x x x x x x x x x x x x x x x

Lead guitar:

d#|------------------------------------------------------------------------|
A#|------------------------------------------------------------------------|
F#|--7-7-7-7-7-7-9-9-9-9-10-10-10-10-9-9-10-10-10-10-10-10-12-12-12-12-14--|
C#|------------------------------------------------------------------------|
G#|------------------------------------------------------------------------|
C#|------------------------------------------------------------------------|

d#|------------------------------------------------------------------------|
A#|------------------------------------------------------------------------|
F#|-14-14-14-12-12-14-14-14-14-14-14-15-15-15-15-17-17-17-17-15-15-17-17---|
C#|------------------------------------------------------------------------|
G#|------------------------------------------------------------------------|
C#|------------------------------------------------------------------------|

d#|------------------------------------------------------------------------|
A#|------------------------------------------------------------------------|
F#|-17-17-17-17-19-19-19-19-19-19-19-19-19-19------------------------------|
C#|------------------------------------------------------------------------|
G#|------------------------------------------------------------------------|
C#|------------------------------------------------------------------------|

Chorus X2

End with:

d#|------------------------------------------------------------------------|
A#|------------------------------------------------------------------------|
F#|------------------------------------------------------------------------|
C#|------------------------------------------------------------------0-----|
G#|------------------------------------------------------------------0-----|
C#|--0-1-3-0-1-0-0-0-0-1-3-0-1-0-0-0-0-1-3-0-1-0-0-0-0-1-3-0-1-0-0-1-0-----|





************************************

| /   slide up
| \   slide down
| h   hammer-on
| p   pull-off
| ~   vibrato
| +   harmonic
| x   Mute note
| b   Bend
| pb  Pre-bend
| br  Bend release
| pbr Pre-bend release
| brb Bend release bend

************************************





Comments


Popular 10 Years tabs & chords
All Your Lies Tabs
Fade Into The Ocean Tabs
Fault Line 1 Tabs
Prey Tabs
Shelter 3 Tabs
So Long Goodbye 3 Tabs
The Wicked Ones Tabs
The Wicked Ones 1 Tabs
When Will You Breathe Tabs
Wasteland Ukulele


Song lyrics



↑ Back to top | Tablatures and chords are parodies/interpretations of the original songs. You may use it for private study, scholarship, research or language learning purposes only
© 2014 AZChords.com Contact us | Privacy policy | DMCA | Add/correct tabs | Request tabs | Top 50 tabs