» » »

10 Years, Shoot It Out Bass tabs (ver.1)

Artists:  A B C D E F G H I J K L M N O P Q R S T U V W X Y Z # 

Shoot It Out Bass tabs (ver.1)

10 Years Tabs
 Rating:
3.4/5 (5 votes)
Shoot It Out lessons Tabs too difficult? Try these video lessons and learn fast
                
The tuning is Drop C# (or Drop Db)

Intro/Verse/Main riff:

F#|---------------------------------------------------------------------|
C#|---------------------------------------------------------------------|
G#|--6-6-6-6-5-5-5-5-5-5-5-5-5-5-5-5-6-6-6-6-5-5-5-5-5-5-5-5-5-5-5-5----|
C#|---------------------------------------------------------------------|
____________________________________________________________________________

The pre-chorus where Jesse's singing "I'm ready to die", just let the fifth fret of the 
second string (G# string) ring or just don't play anything.

Chorus:

F#|---------------------------------------------------------------------|
C#|---------------------------------------------------------------------|
G#|---------------------------------------------------------------------|
C#|--5---5--5-5-3---3--3-3-8---8--8-8-1---1--1-1-1----------------------|
         "Will you kill what's left of me to stop the bleeding?"


F#|---------------------------------------------------------------------|
C#|---------------------------------------------------------------------|
G#|--6-6-6-6-5-5-5-5-5-5-5-5-5-5-5-5-6-6-6-6-5-5-5-5-5-5-5-5-5-5-5-5----|
C#|---------------------------------------------------------------------|
       "Shoot it, shoot it out 'cause they want it, want it now, now."
____________________________________________________________________________

Bridge:

F#|---------------------------------------------------------------------|
C#|---------------------------------------------------------------------| x2
G#|---------------------------------------------------------------------|
C#|--1-1-1-0-0-0-0-------------------1-1-1-0-0-0-0----------------------|
                  "Feeding the wolves"             "Don't you know better?"
Then play;

F#|---------------------------------------------------------------------|
C#|---------------------------------------------------------------------| x2
G#|--6-6-6-6-5-5-5-5-5-5-5-5-5-5-5-5-6-6-6-6-5-5-5-5-5-5-5-5-5-5-5-5----|
C#|---------------------------------------------------------------------|
                 "Feeding the wolves"             "Don't you know better?"

The little part AFTER the bridge where we get that orgasmic vocal from Jesse is just the 
main riff being played twice.
____________________________________________________________________________
Ending note:

F#|---------------------------------------------------------------------|
C#|---------------------------------------------------------------------|
G#|-5~~~~~~~~-----------------------------------------------------------|
C#|---------------------------------------------------------------------|
Intro/Verse/Main riff x4
Chorus x2
Intro/Verse/Main riff x4
Chorus x2
Bridge x1
Intro/Verse/Main riff x2
Chorus x2
Intro/Verse/Main riff x1
Ending note~ x1
            
Submit corrections

comments powered by Disqus
↑ Back to top | 10 Years Bass for Shoot It Out. Lyrics for acoustic guitar and electric guitar. Tablatures and chords are parodies/interpretations of the original songs. You may use it for private study, scholarship, research or language learning purposes only