» » »

Russian Roulette Tabs (ver.3)

Artists:  A B C D E F G H I J K L M N O P Q R S T U V W X Y Z # 

Russian Roulette Tabs (ver.3)

10 Years
Rating:
5/5 (5 votes)

Hard to play? Try these video lessons and learn fast.
                

This is just an updated version of Hardrocker89ac's tab of this song.
So credit goes to him,I'm just fixing a few parts.

Tuning:Drop C#

Intro 4x

|---------------------------------------------------|
|---------------------------------------------------|
|----4---2-0-------4---2-0--0h2-0-------------------|
|---2------2------2------2--------------------------|
|--2-------2-----2-------2--------------------------|
|-2----2---2----2----2---2--------------------------|


Distortion

Lead
                           Second time:
|----------------------------------------------------|
|-44-44-44-44-55-55-77-77--77777---------------------|
|-22-22-22-22-22-22-22-22--22222---------------------|
|-------------------------^-----^--------------------|
|----------------------------------------------------|
|----------------------------------------------------|


Verse: Rhytm

|----------------------------------------------|
|----------------------------------------------|
|---0---2---0---2---0---2---0---2----0---2-----|
|-22--22--22--22--22--22--22--22--22---22------|
|----------------------------------------------|
|----------------------------------------------|


|----------------------------------------------|
|----------------------------------------------|
|---0---2---0---2---0--------------------------|
|-22--22--22--22--22--2p0----------------------|
|----------------------------------------------|
|---------------------------5-3----------------|


|-----------------------------------------------------|
|-----------------------------------------------------|
|---0---2p0---0---2p0---0---2p0---0---2p0---0---2p0---|
|-22--22----22--22----22--22----22--22----22--22------|
|-----------------------------------------------------|
|-----------------------------------------------------|

|-----------------------------------------------------|
|-----------------------------------------------------|
|---0---2p0---0---2p0---0-----------------------------|
|-22--22----22--22----22--2222p0----------------------|
|-----------------------------------------------------|
|--------------------------------5-3------------------|

Verse:Lead

A little bit of Delay

|----------------------------------------------|
|----------------------------------------------|
|-12~-11~--9~----------------------------------|  Repeat 4x
|----------------------------------------------|
|----------------------------------------------|
|----------------------------------------------|

Pre-Chorus:Lead

|----------------------------------------------------|
|-44-44-44-44-55-55-77-77--77777---------------------|
|-22-22-22-22-22-22-22-22--22222---------------------|
|-------------------------^-----^--------------------|
|----------------------------------------------------|
|----------------------------------------------------|

Pre-Chorus:Rhythm

|----------------------------------------------------|
|------------------33-33--33333----------------------|
|44-44-44-44-55-55-xx-xx--xxxxx----------------------|
|22-22-22-22-22-22-22-22--22222----------------------|
|22-22-22-22-22-22-22-22--22222----------------------|
|22-22-22-22-22-22-22-22--22222----------------------|
                         ^     ^--Second time

Chorus

|---------------------------------------------|
|---------------------------------------------|
|---------------------------------------------|
|22222222-h333-0000--h5555555--000000---------|
|22222222-h333-0000--h5555555--000000---------|
|22222222-h333-0000--h5555555--000000---------|

then,

|-----------------------------------------|
|-----------------------------------------|
|-----------------------------------------|
|h2222222-h3333-0000-5555555555-----------|
|h2222222-h3333-0000-5555555555-----------|
|h2222222-h3333-0000-5555555555-----------|

Verse

Pre-Chorus

2nd Chorus repeat 2x

Bridge

|---------------------------------------------|
|---------------------------------------------|
|7/-99-7/-99-7/-99----------------------------| repeat 4x
|7/-99-7/-99-7/-99--10101010-7777777-5555555--|
|5/-77-5/-77-5/-77--10101010-7777777-5555555--|
|-------------------10101010-7777777-5555555--|
    ..    ..    ..

Chorus

Outro same as Pre-chorus


well that's how I play it,so yeah like I said credit also goes to Hardrocker89ac. Like 
LISTEN TO SONG FOR TIMING!!
Rock on!!
            
Hard to play? Try these video lessons and learn fast. | Correct




comments powered by Disqus
↑ Back to top | Tablatures and chords are parodies/interpretations of the original songs. You may use it for private study, scholarship, research or language learning purposes only