» » »

10 Years, Russian Roulette Tabs (ver.2)

Artists:  A B C D E F G H I J K L M N O P Q R S T U V W X Y Z # 

Russian Roulette Tabs (ver.2)

10 Years Tabs
 Rating:
4/5 (4 votes)
Russian Roulette lessons Tabs too difficult? Try these video lessons and learn fast
1
                tuning: Db Ab Db Gb Bb Eb
intro x4
eb:------------------------------------------------------|
Bb:------------------------------------------------------|
gb:-------4--2--0---------4--2--0-0h2-0------------------|
db:-----2---------------2--------------------------------|
ab:---2---------------2----------------------------------|
db:-2------2--2-----2------2--2--------------------------|

riff 1 x2                      second time
eb:------------------------------------------------------|
Bb:-44-44-44-44-55-55-77-77----777777--------------------|
gb:-22-22-22-22-22-22-22-22----222222--------------------|
db:------------------------------------------------------|
ab:------------------------------------------------------|
db:------------------------------------------------------|


verse 1
eb:------------------------------------------------------|
Bb:------------------------------------------------------|
gb:---0----2----0----2----0----2----0----2----0----2-----|
db:-22---22---22---22---22---22---22---22---22---22------|
ab:------------------------------------------------------|
db:------------------------------------------------------|


eb:------------------------------------------------------|
Bb:------------------------------------------------------|
gb:---0----2----0----2----0------------------------------|
db:-22---22---22---22---22----2p0------------------------|
ab:------------------------------------------------------|
db:---------------------------------5-3------------------|

eb:------------------------------------------------------|
Bb:------------------------------------------------------|
gb:---0---2p0--0---2p0--0---2p0--0---2p0--0---2p0--------|
db:-22-222---22-222---22-222---22-222---22-222-----------|
ab:------------------------------------------------------|
db:------------------------------------------------------|

eb:------------------------------------------------------|
Bb:------------------------------------------------------|
gb:---0---2p0--0---2p0--0--------------------------------|
db:-22-222---22-222---22-2222p0--------------------------|
ab:------------------------------------------------------|
db:------------------------------5-3---------------------|

riff 1 x2                      second time
eb:------------------------------------------------------|
Bb:-44-44-44-44-55-55-77-77----777777--------------------|
gb:-22-22-22-22-22-22-22-22----222222--------------------|
db:------------------------------------------------------|
ab:------------------------------------------------------|
db:------------------------------------------------------|

chorus  x2
eb:------------------------------------------------------|
Bb:------------------------------------------------------|
gb:------------------------------------------------------|
db:-2--2--2h4--4--5--5---57--7777-70--0000---------------|
ab:-2--2--2h4--4--5--5---57--7777-70--0000---------------|
db:-2--2--2h4--4--5--5---57--7777-70--0000---------------|

verse 2
eb:------------------------------------------------------|
Bb:------------------------------------------------------|
gb:---0---2p0--0---2p0--0---2p0--0---2p0--0---2p0--------|
db:-22-222---22-222---22-222---22-222---22-222-----------|
ab:------------------------------------------------------|
db:------------------------------------------------------|

eb:------------------------------------------------------|
Bb:------------------------------------------------------|
gb:---0---2p0--0---2p0--0--------------------------------|
db:-22-222---22-222---22-2222p0--------------------------|
ab:------------------------------------------------------|
db:------------------------------5-3---------------------|

riff 1 x2                      second time
eb:------------------------------------------------------|
Bb:-44-44-44-44-55-55-77-77----777777--------------------|
gb:-22-22-22-22-22-22-22-22----222222--------------------|
db:------------------------------------------------------|
ab:------------------------------------------------------|
db:------------------------------------------------------|

chorus  x4
eb:------------------------------------------------------|
Bb:------------------------------------------------------|
gb:------------------------------------------------------|
db:-2--2--2h4--4--5--5---57--7777-70--0000---------------|
ab:-2--2--2h4--4--5--5---57--7777-70--0000---------------|
db:-2--2--2h4--4--5--5---57--7777-70--0000---------------|

brdige (rhythm not tabbed out well here)
eb:------------------------------------------------------|
Bb:------------------------------------------------------|
gb:-7/999-7/999-7/955--5-55555---------------------------|
db:-7/999-7/999-7/755--5-55555--555--0000----------------|
ab:-5/777-5/777-5/733--3-33333--555--0000----------------|
db:-----------------------------555--0000----------------|
       ..    ..    ..


chorus  x4
eb:------------------------------------------------------|
Bb:------------------------------------------------------|
gb:------------------------------------------------------|
db:-2--2--2h4--4--5--5---57--7777-70--0000---------------|
ab:-2--2--2h4--4--5--5---57--7777-70--0000---------------|
db:-2--2--2h4--4--5--5---57--7777-70--0000---------------|

riff 1 x2
eb:------------------------------------------------------|
Bb:-44-44-44-44-55-55-77-77------------------------------|
gb:-22-22-22-22-22-22-22-22------------------------------|
db:------------------------------------------------------|
ab:------------------------------------------------------|
db:------------------------------------------------------|
            
Submit corrections

comments powered by Disqus
↑ Back to top | 10 Years Tabs for Russian Roulette. Lyrics for acoustic guitar and electric guitar. 1 Tablatures and chords are parodies/interpretations of the original songs. You may use it for private study, scholarship, research or language learning purposes only