>
 >
Russian Roulette

Russian Roulette Guitar Tabs

10 Years - Russian Roulette chords, tabs, tablatures, lyrics

Guitar lessons | Add/correct | Request | Top 50 tabs Artists:  A B C D E F G H I J K L M N O P Q R S T U V W X Y Z 0-9

Russian Roulette Guitar Tabs – 10 Years

CD, Sheet music, Poster

Do you like Russian Roulette? Share with your friends now
TabsTabs v2Tabs v3
10 Years
Tuning Db Ab Db Gb Bb Eb
      (C# G# C# F# A# D#)

Legend:
()-optional                  p-pull off                 \-slide down
h-hammer on                  /-slide up                 pm-palm mute

This is my favorite 10 Years song and I decided to tab the whole song.
The other versions were missing a little but props to them for trying.
The intro was a pain to tab but itís all there, I hope this tab helps
whoever reads it. For tab requests go to my page. Thanks.

Intro Fill-in Guitar (fuzz and distorted) 00:00 to 00:20
Eb|-----------------------------------------------------------------|
Bb|-----------------------------------------------------------------|
Gb|-----------------------------------------------------------------|
Db|--2--------------------------------------------------------------|
Ab|--2--------------------------------------------------------------|
Db|--2--------------------------------------------------------------|

Intro Guitar 1 (clean eletric): 00:00
Eb|-----------------------------------------------------------------|
Bb|-----------------------------------------------------------------|
Gb|-----------4-----2---0--------------------4-----2----0-----------|
Db|--------2------------2-----------------2-------------2-----------|
Ab|-----2---------------3--------------2----------------3-----------|
Db|--2-----------2------------------2-----------2-------------------|
                                                                    |
Intro Guitar 2 (Acoustic): 00:04                                    |
Eb|-----------------------------------------------------------------|
Bb|---------------------------------0-------------------------------|
Gb|---------------------------------4-------------------0---0-h2p0--|
Db|---------------------------------2-------------------2-----------|
Ab|---------------------------------2-------------------3-----------|
Db|---------------------------------2-------------------------------|

Intro Guitar 1 (clean eletric): 00:11
Eb|-----------------------------------------------------------------|
Bb|-----------------------------------------------------------------|
Gb|-----------4-----2---0--------------------4-----2----0-----------|
Db|--------2------------2-----------------2-------------2-----------|
Ab|-----2---------------3--------------2----------------3-----------|
Db|--2-----------2------------------2-----------2-------------------|
                                                                    |
Intro Guitar 2 (Acoustic): 00:11                                    |
Eb|-----------------------------------------------------------------|
Bb|-----------------------------------------------------------------|
Gb|-----------4---------0-------------------4-----------0-----------|
Db|--------2------------2-----------------2-------------2-----------|
Ab|-----2---------------3--------------2----------------3-----------|
Db|--2------------------------------2-------------------------------|
                                                                    |
Intro Guitar 3 (with slider): 00:11                                 |
Eb|-----------------------------------------------------------------|
Bb|-----------------------------------------------------------------|
Gb|---------------------------------------------------------5-/7\5--|
Db|---------------------------------------------------------5-/7\5--|
Ab|--5/7------------------------------------------------------------|
Db|-----------------------------------------------------------------|

Intro Guitar 1 (clean eletric): 00:20
Eb|-----------------------------------------------------------------|
Bb|-----------------------------------------------------------------|
Gb|-----------4-----2---0--------------------4-----2----0-----------|
Db|--------2------------2-----------------2-------------2-----------|
Ab|-----2---------------3--------------2----------------3-----------|
Db|--2-----------2------------------2-----------2-------------------|
                                                                    |
Intro Guitar 2 (Acoustic): 00:20                                    |
Eb|-----------------------------------------------------------------|
Bb|-----------------------------------------------------------------|
Gb|-----------4---------0---0-h2p0-----------4----------0-----------|
Db|--------2------------2-----------------2-------------2-----------|
Ab|-----2---------------3--------------2----------------3-----------|
Db|--2------------------------------2-------------------------------|
                                                                    |
Intro Guitar 3 (with slider): 00:20                                 |
Eb|-----------------------------------------------------------------|
Bb|-----------------------------------------------------------------|
Gb|-----------------------------------------------------------------|
Db|-----------------------------------------------------------------|
Ab|-------------------------------5/7-------------------------------|
Db|-----------------------------------------------------------------|

Intro Guitar 1 (clean eletric): 00:29
Eb|-----------------------------------------------------------------|
Bb|-----------------------------------------------------------------|
Gb|-----------4-----2---0--------------------4-----2----0-----------|
Db|--------2------------2-----------------2-------------2-----------|
Ab|-----2---------------3--------------2----------------3-----------|
Db|--2-----------2------------------2-----------2-------------------|
                                                                    |
Intro Guitar 2 (Acoustic): 00:29                                    |
Eb|-----------------------------------------------------------------|
Bb|-----------------------------------------------------------------|
Gb|-----------4---------0--------------------4----------0-----------|
Db|--------2------------2-----------------2-------------2-----------|
Ab|-----2---------------3--------------2----------------3-----------|
Db|--2------------------------------2-------------------------------|
                                                                    |
Intro Guitar 3 (with slider): 00:29                                 |
Eb|-----------------------------------------------------------------|
Bb|-----------------------------------------------------------------|
Gb|-------------------------5-/7\5--------------------------/--9----|
Db|-------------------------5-/7\5--------------------------/--9----|
Ab|-----------------------------------------------------------------|
Db|-----------------------------------------------------------------|

Guitar 3 (with slider): 00:37
Eb|-----------------------------------------------------------------|
Bb|-----------------------------------------------------------------|
Gb|--9--------------\7----------\6--------\5-----\4----\3---\2-\----|
Db|--9--------------\7----------\6--------\5-----\4----\3---\2-\----|
Ab|-----------------------------------------------------------------|
Db|-----------------------------------------------------------------|

Intro Guitar 1 (Distorted): 00:51
Eb|-----------------------------------------------------------------|
Bb|-----------------------------------------------------------------|
Gb|--44-44-44-44--55-55--77-77----44-44-44-44--55-55--77777---------|
Db|--22-22-22-22--22-22--xx-xx----22-22-22-22--22-22--xxxxx---------|
Ab|--22-22-22-22--33-33--55-55----22-22-22-22--33-33--55555---------|
Db|-----------------------------------------------------------------|

Verse 1 Guitar 1 (Distorted): 01:00
Eb|-----------------------------------------------------------------|
Bb|-----------------------------------------------------------------|
Gb|-------0-------2-------0-------2-------0-------2-------0-------2-|
Db|--2-2-----2-2-----2-2-----2-2-----2-2-----2-2-----2-2-----2-2----|
Ab|-----------------------------------------------------------------|
Db|-----------------------------------------------------------------|
     pmpm    pmpm    pmpm    pmpm    pmpm    pmpm    pmpm    pmpm

Verse 1 Guitar 3 (with delay): 01:00 / 01:06 / 01:13 / 01:19
Eb|-----------------------------------------------------------------|
Bb|--8------------7-------------------------------------------------|
Gb|----------------------------------9------------------------------|
Db|-----------------------------------------------------------------|
Ab|-----------------------------------------------------------------|
Db|-----------------------------------------------------------------|

Verse 1 Guitar 1 (Distorted): 01:06
Eb|-----------------------------------------------------------------|
Bb|-----------------------------------------------------------------|
Gb|-------0-------2-------0-------2-------0-------2-----------------|
Db|--2-2-----2-2-----2-2-----2-2-----2-2-----2-2-----2-2------------|
Ab|------------------------------------------------------3-3p2--0h2-|
Db|-----------------------------------------------------------------|
     pmpm    pmpm    pmpm    pmpm    pmpm    pmpm    pmpm

Verse 1 Guitar 1 (Distorted): 01:13
Eb|-----------------------------------------------------------------|
Bb|-----------------------------------------------------------------|
Gb|-------0-------2-------0-------2-------0-------2-------0-------2-|
Db|--2-2-----2-2---2-2-2-----2-2---2-2-2-----2-2---2-2-2-----2-2---2|
Ab|-----------------------------------------------------------------|
Db|-----------------------------------------------------------------|
     pmpm    pmpm    pmpm    pmpm    pmpm    pmpm    pmpm    pmpm

Verse 1 Guitar 1 (Distorted): 01:19
Eb|-----------------------------------------------------------------|
Bb|-----------------------------------------------------------------|
Gb|-------0-------2-------0-------2-------0-------2-----------------|
Db|--2-2-----2-2---2-2-2-----2-2---2-2-2-----2-2---2----------------|
Ab|--------------------------------------------------3-3-3\2-5/7-\2-|
Db|----------------------------------------------------------5/7-\2-|
     pmpm    pmpm    pmpm    pmpm    pmpm    pmpm

Pre-Chorus Guitars 1 and 3 (Distorted): 01:26
Eb|-----------------------------------------------------------------|
Bb|-----------------------------------------------------------------|
Gb|--44-44-44-44--55-55--77-77----44-44-44-44--55-55--77777---------|
Db|--22-22-22-22--22-22--xx-xx----22-22-22-22--22-22--xxxxx---------|
Ab|--22-22-22-22--33-33--55-55----22-22-22-22--33-33--55555---------|
Db|-----------------------------------------------------------------|

Chorus Guitar 1 (Distorted): 01:36 / 01:42
Eb|-----------------------------------------------------------------|
Bb|-----------------------------------------------------------------|
Gb|-----------------------------------------------------------------|
Db|--2-----2--2---2/3---3--3---3p0--0-0--0h5-55555555555-5--000-----|
Ab|--2-----2--2---2/3---3--3---3p0--0-0--0h5-55555555555-5--000-----|
Db|--2-----2--2---2/3---3--3---3p0--0-0--0h5-55555555555-5--000-----|
                                                                    |
Chorus Guitar 3 (Strum): 01:36 / 01:26                              |
Eb|--12-------------------------------------10----------------------|
Bb|--12-------------------------------------12----------------------|
Gb|-----------------------------------------------------------------|
Db|-----------------------------------------------------------------|
Ab|-----------------------------------------------------------------|
Db|-----------------------------------------------------------------|

Verse 2 Guitar 1 (Distorted): 01:49
Eb|-----------------------------------------------------------------|
Bb|--5--------------------------------------------------------------|
Gb|--4--------------------------------------------------------------|
Db|--2--------------------------------------------------------------|
Ab|--2-----------------------------------------------------3p2-0h2--|
Db|-----------------------------------------------------------------|

Verse 2 Guitar 1 (Distorted): 02:01
Eb|-----------------------------------------------------------------|
Bb|-----------------------------------------------------------------|
Gb|-------0-------2-------0-------2-------0-------2-------0-------2-|
Db|--2-2-----2-2---2-2-2-----2-2---2-2-2-----2-2---2-2-2-----2-2---2|
Ab|-----------------------------------------------------------------|
Db|-----------------------------------------------------------------|
     pmpm    pmpm    pmpm    pmpm    pmpm    pmpm    pmpm    pmpm

Verse 2 Guitar 3 (with delay): 02:01 / 02:07
Eb|-----------------------------------------------------------------|
Bb|--8------------7-------------------------------------------------|
Gb|----------------------------------9------------------------------|
Db|-----------------------------------------------------------------|
Ab|-----------------------------------------------------------------|
Db|-----------------------------------------------------------------|

Verse 2 Guitar 1 (Distorted): 02:07
Eb|-----------------------------------------------------------------|
Bb|-----------------------------------------------------------------|
Gb|-------0-------2-------0-------2-------0-------2-----------------|
Db|--2-2-----2-2---2-2-2-----2-2---2-2-2-----2-2---2----------------|
Ab|--------------------------------------------------3-3-3\2-5/7-\2-|
Db|----------------------------------------------------------5/7-\2-|
     pmpm    pmpm    pmpm    pmpm    pmpm    pmpm

Pre-Chorus Guitars 1 and 3 (Distorted): 02:13
Eb|-----------------------------------------------------------------|
Bb|-----------------------------------------------------------------|
Gb|--44-44-44-44--55-55--77-77----44-44-44-44--55-55--77777---------|
Db|--22-22-22-22--22-22--xx-xx----22-22-22-22--22-22--xxxxx---------|
Ab|--22-22-22-22--33-33--55-55----22-22-22-22--33-33--55555---------|
Db|-----------------------------------------------------------------|

Chorus Guitar 1 (Distorted): 02:24 / 02:30 / 02:36 / 02:42
Eb|-----------------------------------------------------------------|
Bb|-----------------------------------------------------------------|
Gb|-----------------------------------------------------------------|
Db|--2-----2--2---2/3---3--3---3p0--0-0--0h5-55555555555-5--000-----|
Ab|--2-----2--2---2/3---3--3---3p0--0-0--0h5-55555555555-5--000-----|
Db|--2-----2--2---2/3---3--3---3p0--0-0--0h5-55555555555-5--000-----|
                                                                    |
Chorus Guitar 3 (Strum): 02:24 / 02:30 / 02:36 / 02:42              |
Eb|--12-------------------------------------10----------------------|
Bb|--12-------------------------------------12----------------------|
Gb|-----------------------------------------------------------------|
Db|-----------------------------------------------------------------|
Ab|-----------------------------------------------------------------|
Db|-----------------------------------------------------------------|

Bridge Guitar 1 (Distorted): 02:49
Eb|-----------------------------------------------------------------|
Bb|-----------------------------------------------------------------|
Gb|-----------------------------------------------------------------|
Db|--7/9-99---7/9-99---7/9-99---55555---7-7--7777---555---7777------|
Ab|--5/7-77---5/7-77---5/7-77---33333---7-7--7777---555---5555------|
Db|-------------------------------------7-7--7777---555-------------|
         pm       pm       pm

Bridge Guitar 3 (strum): 02:49
Eb|-----------------------------------------------------------------|
Bb|--12---------------------------------10--------------------------|
Gb|-----------------------------------------------------------------|
Db|-----------------------------------------------------------------|
Ab|-----------------------------------------------------------------|
Db|-----------------------------------------------------------------|

Bridge Guitar 1 (Distorted): 02:55
Eb|-----------------------------------------------------------------|
Bb|-----------------------------------------------------------------|
Gb|-----------------------------------------------------------------|
Db|--7/9-99---7/9-99---7/9-99---55555---7-7--7777---555---4444------|
Ab|--5/7-77---5/7-77---5/7-77---33333---7-7--7777---555---5555------|
Db|-------------------------------------7-7--7777---555---4444------|
         pm       pm       pm

Bridge Guitar 3 (strum): 02:55
Eb|-----------------------------------------------------------------|
Bb|--12---------------------------------10--------------------------|
Gb|-----------------------------------------------------------------|
Db|-----------------------------------------------------------------|
Ab|-----------------------------------------------------------------|
Db|-----------------------------------------------------------------|

Bridge Guitar 1 (Distorted): 03:02
Eb|-----------------------------------------------------------------|
Bb|-----------------------------------------------------------------|
Gb|-----------------------------------------------------------------|
Db|--7/9-99---7/9-99---7/9-99---55555---7-7--7777---555---7777------|
Ab|--5/7-77---5/7-77---5/7-77---33333---7-7--7777---555---5555------|
Db|-------------------------------------7-7--7777---555-------------|
         pm       pm       pm

Bridge Guitar 3 (strum): 03:02
Eb|-----------------------------------------------------------------|
Bb|--12---------------------------------10--------------------------|
Gb|-----------------------------------------------------------------|
Db|-----------------------------------------------------------------|
Ab|-----------------------------------------------------------------|
Db|-----------------------------------------------------------------|

Bridge Guitar 1 (Distorted): 03:08
Eb|-----------------------------------------------------------------|
Bb|-----------------------------------------------------------------|
Gb|-----------------------------------------------------------------|
Db|--7/9-99---7/9-99---7/9-99---55555---7-7--7777---555---4444------|
Ab|--5/7-77---5/7-77---5/7-77---33333---7-7--7777---555---5555------|
Db|-------------------------------------7-7--7777---555---4444------|
         pm       pm       pm

Bridge Guitar 3 (strum): 03:08
Eb|-----------------------------------------------------------------|
Bb|--12---------------------------------------------------10--------|
Gb|-----------------------------------------------------------------|
Db|-----------------------------------------------------------------|
Ab|-----------------------------------------------------------------|
Db|-----------------------------------------------------------------|

Chorus Guitar 1 (Distorted): 03:14 / 03:21 / 03:27 / 03:33
Eb|-----------------------------------------------------------------|
Bb|-----------------------------------------------------------------|
Gb|-----------------------------------------------------------------|
Db|--2-----2--2---2/3---3--3---3p0--0-0--0h5-55555555555-5--000-----|
Ab|--2-----2--2---2/3---3--3---3p0--0-0--0h5-55555555555-5--000-----|
Db|--2-----2--2---2/3---3--3---3p0--0-0--0h5-55555555555-5--000-----|
                                                                    |
Chorus Guitar 3 (Strum): 03:14 / 03:21 / 03:27 / 03:33              |
Eb|--12-------------------------------------10----------------------|
Bb|--12-------------------------------------12----------------------|
Gb|-----------------------------------------------------------------|
Db|-----------------------------------------------------------------|
Ab|-----------------------------------------------------------------|
Db|-----------------------------------------------------------------|

Outro Guitars 1 and 3 (Distorted): 03:39 / 03:44
Eb|-----------------------------------------------------------------|
Bb|-----------------------------------------------------------------|
Gb|--44-44-44-44--55-55--77-77----44-44-44-44--55-55--77-77---------|
Db|--22-22-22-22--22-22--xx-xx----22-22-22-22--22-22--xx-xx---------|
Ab|--22-22-22-22--33-33--55-55----22-22-22-22--33-33--55-55---------|
Db|-----------------------------------------------------------------|

Finished!


Trivia:

* "Russian Roulette" was formerly know as "Chemical Christ"

* The intro of "Just Can't Win" (00:00 - 00:06) you can hear a part of 
"Rusian Roulette" (00:55 - 01:01 and lyrics "It's Russian Roulette with 
no luck" it only plays 6 seconds and stops, following the intro of the 
drums into "Just Can't Win").





Comments


Popular 10 Years tabs & chords
Actions And Motives Bass Tabs
Wasteland 2 Bass Tabs
Beautiful 2 Tabs
Fault Line 1 Tabs
Half Life 3 Tabs
Just Can't Win Tabs
So Long Goodbye 4 Tabs
So Long, Goodbye Tabs
Through The Iris 2 Tabs
Wasteland Ukulele


Song lyrics



↑ Back to top | Tablatures and chords are parodies/interpretations of the original songs. You may use it for private study, scholarship, research or language learning purposes only
© 2014 AZChords.com Contact us | Privacy policy | DMCA | Add/correct tabs | Request tabs | Top 50 tabs