Home » Z » Zz Top »

Zz Top - Thug Bass

Artists:  A B C D E F G H I J K L M N O P Q R S T U V W X Y Z # 

Thug Bass

(ver. 2) Click to play this song!
Zz Top
G--------5--5--5--5h7-------5--5--5--5h7-|
D----------------------------------------|
A------5------------------5--------------|    
E----------------------------------------|          h=hammer on
       s p  p  p  p p     s p  p  p  p p            p=pop
                                                    s=slap

G--------5--5--5--5h7-------5--5--5--5h7|
D---------------------------------------|
A------5------------------5-------------|
E---------------------------------------|   
       s p  p  p  p p     s p  p  p  p p                
            
Submit corrections

↑ Back to top | Tablatures and chords for acoustic guitar and electric guitar, ukulele, drums are parodies/interpretations of the original songs. You may use it for private study, scholarship, research or language learning purposes only