Home » Z » Zz Top »

Zz Top - I Thank You Bass

Artists:  A B C D E F G H I J K L M N O P Q R S T U V W X Y Z # 

I Thank You Bass

(ver. 3) Click to play this song!
Zz Top
(0:10) 
[Intro]
G|---------------------------------------------------------------|
D|---------------------------------------------------------------|
A|------0-0-----0-0----0-0----0-0-----0-0----0-0-----------------|
E|--5-5-----5-5----5-5----5-5-----5-5-----5-5---—0h1—1/2—2/3-3/5-|

(0:18) 
[Verse]
G|------------|         |-------------| 
D|------------| (x4)    |-------------| 
A|------------|         |--------7/5--| 
E|--5-5-5-5---|         |-5--5--------| 

G|------------|         |-------------| 
D|------------| (x4)    |-------------| 
A|------------|         |--------7/5--| 
E|--5-5-5-5---|         |-5--5--------| 

G|------------|         
D|------------| (x14)             
A|------------|
E|--5-5-5-5---|

G|---------------------------------------------|
D|---------------------------------------------|
A|--7-7-7-7-7-7-7-7--7-7/8-8/9-9/10—11---------|
E|---------------------------------------------|

(0:53) 
[Verse]
G|------------|         |-------------| 
D|------------| (x4)    |-------------| 
A|------------|         |--------7/5--| 
E|--5-5-5-5---|         |-5--5--------| 

G|------------|         |-------------| 
D|------------| (x4)    |-------------| 
A|------------|         |--------7/5--| 
E|--5-5-5-5---|         |-5--5--------| 

G|------------|         
D|------------| (x14)             
A|------------|
E|--5-5-5-5---|

G|---------------------------------------------|
D|---------------------------------------------|
A|--7-7-7-7-7-7-7-7--7-7/8-8/9-9/10—11---------|
E|---------------------------------------------|

(1:28) 
[Solo]
G|---------------------------------------------|
D|---------------------------------------------| (x3)
A|--------------------------5-5-5-5------------|
E|--5-5-5-5-5-5-5-5-3-3-3-3--------------------|

G|---------------------------------------------|
D|---------------------------------------------|
A|--7-7-7-7-7-7-7-7--7-7/8-8/9-9/10—11---------|
E|---------------------------------------------|

(1:53) 
[Verse]
G|------------| 
D|------------|         
A|-------7/5--| 
E|------------| 

G|------------|         |-------------| 
D|------------| (x4)    |-------------| 
A|------------|         |--------7/5--| 
E|--5-5-5-5---|         |-5--5--------| 

G|------------|         |-------------| 
D|------------| (x4)    |-------------| 
A|------------|         |--------7/5--| 
E|--5-5-5-5---|         |-5--5--------| 

G|------------|         
D|------------| (x14)             
A|------------|
E|--5-5-5-5---|

(2:21) 
[Outro]
G|---------------------------------------------|
D|---------------------------------------------|
A|--7-7-7-7-7-7-7-7--7-7/8-8/9-9/10—11---------|
E|---------------------------------------------|

G|---------------------------------------------|
D|---------------------------------------------| 
A|--------------------------5-5-5-5------------|
E|--5-5-5-5-5-5-5-5-3-3-3-3--------------------|            
Submit corrections

↑ Back to top | Tablatures and chords for acoustic guitar and electric guitar, ukulele, drums are parodies/interpretations of the original songs. You may use it for private study, scholarship, research or language learning purposes only