» » »

Zwan - The Empty Sea Bass

Artists:  A B C D E F G H I J K L M N O P Q R S T U V W X Y Z # 

The Empty Sea Bass

(ver. 1) Click to play this song!
Zwan
 Rating:
4/5 (4 votes)
                1st VERSE
G|----------------|----------------|
C|-------9--------|----------------|
G|12--12--11-11---|-9--------------|
D|-------------12-|--12-9--------12|

   CHORUS
G|----------------|----------------|----------------|----------------|
C|----------------|----------------|----------------|----------------|
G|----------------|----------------|----------------|----------------|
D|-7-----------9-7|-0--------------|-7-----------9-7|-2--------------|

   OTHER VERSES
G|----------------|----------------|
C|----------------|----------------|
G|-9------11-9----|----------------|
D|--------------12|-9------------12|

   OUTRO
G|----------------|----------------|
C|----------------|----------------|
G|-9-------11-----|----------------|
D|----------------|-9--------------|
            
Submit corrections

↑ Back to top | Tablatures and chords for acoustic guitar and electric guitar, ukulele, drums are parodies/interpretations of the original songs. You may use it for private study, scholarship, research or language learning purposes only