» » »

Zike - Sword Of Blood Bass

Artists:  A B C D E F G H I J K L M N O P Q R S T U V W X Y Z # 

Sword Of Blood Bass

(ver. 1) Click to play this song!
Zike
 Rating:
4/5 (4 votes)
    Sword Of Blood lessons Tabs too difficult? Try these video lessons and learn fast
                band:Zike
Tuning: half step down

intro
Gb|-----------------------------------------|
Db|-----------------------------------------|
Ab|-----------33--66------------33--88------|
Eb|-0-X-00-0----------0-X-00-0--------------|

verse                      (those are 11's not 1's)
Gb|---------------------------------------------|
Db|---------------------------------------------|
Ab|-\7777778885555-77777788811-11-11-11---------|
Eb|---------------------------------------------|

pre-chorus
Gb|---------------------------|
Db|---------------------------|
Ab|------8-7-------5-7--------|
Eb|-7777-----7777-------------|

Chorus
Gb|----------------------------------------------------------|
Db|----------------------------------------------------------|
Ab|--------------------------------4------1------|
Eb|-0---------------------------|

bridge/before solo
Gb|----------------------------------------------|
Db|----------------------------------------------|
Ab|--------------33-66--------------33--88-------|
Eb|-0---------0--------------|


| /  slide up
| \  slide down
| h  hammer-on
| p  pull-off
| ~  vibrato
| +  harmonic
| x  Mute note
            
Submit corrections

↑ Back to top | Tablatures and chords for acoustic guitar and electric guitar, ukulele, drums are parodies/interpretations of the original songs. You may use it for private study, scholarship, research or language learning purposes only