» » »

Zedd - Illusion Tabs

Artists:  A B C D E F G H I J K L M N O P Q R S T U V W X Y Z # 

Illusion Tabs

(ver. 1) Click to play this song!
Zedd
 Rating:
3.4/5 (22 votes)

 Illusion  lessons Tabs too difficult? Try these video lessons and learn fast
 
                Tuning:Standard

e|---3-3-3-2---3-3-3-2---3-3-3-2---3-3-3-2-----------------------------------| Intro 
B|---------------------------------------------------------------------------|
G|---------------------------------------------------------------------------|
D|---------------------------------------------------------------------------|
A|---------------------------------------------------------------------------|
E|---------------------------------------------------------------------------|

e|---------------------------------------------------------------------------| Verse 1 
B|-----------------------------------------------7-7-5-----------------------|
G|---2-4-4-4-2-4-4-2-4---2-2-4-4-2-0-2-4-4-7-5---------4-2-4-----------------| It feels like the fairy-tale's
D|---------------------------------------------------------------------------| over/I really wanted these 
A|---------------------------------------------------------------------------| pages to begin/With once upon
E|---------------------------------------------------------------------------| a time

e|---------------------------------------------------------------------------| Verse 1  
B|---7-7-5-------------------------------------------------------------------|
G|---------4-2-4---2-2-4-4-2-4---2-4-4-2-0-2-4-2-4-7-5-----------------------| Like all those lullabies/ 
D|---------------------------------------------------------------------------| I should've known better/
A|---------------------------------------------------------------------------| I'll admit it I thought when
E|---------------------------------------------------------------------------| I let you in 

e|-----------------------5-7-------------------------------------------------| Verse 1  
B|---7-7-5---------7-7-8-----------------------------------------------------|
G|---------4-2-4-------------------------------------------------------------| You were my shining knight/
D|---------------------------------------------------------------------------| From all those stories 
A|---------------------------------------------------------------------------|
E|---------------------------------------------------------------------------|

e|---7\5-5-10-7-5-------7\5-5-10-7-5-------5-7-7-7-7-3-2-3-3-----------------| Chorus 
B|----------------8-5----------------8-5-------------------------------------|
G|---------------------------------------------------------------------------| This love is your illusion/
D|---------------------------------------------------------------------------| This love is your illusion/
A|---------------------------------------------------------------------------| Take me to a place with real 
E|---------------------------------------------------------------------------| life love

e|---5-5-7-7-3-3-2-3-3-3-5-7---7-7-7-7-3-3-2-3-3-0-7-5-----------------------| Chorus 
B|-----------------------------------------------------8-5-------------------|
G|---------------------------------------------------------------------------| I need a break from this 
D|---------------------------------------------------------------------------| broken down fantasy/Show 
A|---------------------------------------------------------------------------| me a place I can realize love
E|---------------------------------------------------------------------------| now,your illusion

e|---10-----10---10-12-10-----10-10-12-14-15----------------------8-8-7---------| Instrumental x12 
B|------7-8----8----------7-8----------------12-10-8-7-10-12-10-8-------10-8-7--|
G|------------------------------------------------------------------------------|
D|------------------------------------------------------------------------------|
A|------------------------------------------------------------------------------|
E|------------------------------------------------------------------------------|

e|---------------------------------------------------------------------------| Verse 2 
B|-----------------------------------------------7-7-5-----------------------|
G|---2-4-4-2-2-4-4-2-4---2-2-4-4-2-0-2-4-4-7-5---------4-2-4-----------------| It feels like the fairy-tale's
D|---------------------------------------------------------------------------| over/I really wanted these 
A|---------------------------------------------------------------------------| pages to begin/With once upon
E|---------------------------------------------------------------------------| a time

e|---------------------------------------------------------------------------| Verse 2  
B|---7-7-5-------------------------------------------------------------------|
G|---------4-2-4---2-2-4-4-2-4---2-4-4-2-0-2-4-2-4-7-5-----------------------| Like all those lullabies/ 
D|---------------------------------------------------------------------------| I should've known better/
A|---------------------------------------------------------------------------| I'll admit it I thought when
E|---------------------------------------------------------------------------| I let you in 

e|-----------------------5-7-------------------------------------------------| Verse 2  
B|---7-7-5---------7-7-8-----------------------------------------------------|
G|---------4-2-4-------------------------------------------------------------| You were my shining knight/
D|---------------------------------------------------------------------------| From all those stories 
A|---------------------------------------------------------------------------|
E|---------------------------------------------------------------------------|

e|---7\5-5-10-7-5-------7\5-5-10-7-5-------5-7-7-7-7-3-2-3-3-----------------| Chorus 
B|----------------8-5----------------8-5-------------------------------------|
G|---------------------------------------------------------------------------| This love is your illusion/
D|---------------------------------------------------------------------------| This love is your illusion/
A|---------------------------------------------------------------------------| Take me to a place with real 
E|---------------------------------------------------------------------------| life love

e|---5-5-7-7-3-3-2-3-3-3-5-7---7-7-7-7-3-3-2-3-3-0-7-5-----------------------| Chorus 
B|-----------------------------------------------------8-5-------------------|
G|---------------------------------------------------------------------------| I need a break from this 
D|---------------------------------------------------------------------------| broken down fantasy/Show 
A|---------------------------------------------------------------------------| me a place I can realize love
E|---------------------------------------------------------------------------| now,your illusion

e|---10-----10---10-12-10-----10-10-12-14-15----------------------8-8-7---------| Instrumental x8  
B|------7-8----8----------7-8----------------12-10-8-7-10-12-10-8-------10-8-7--|
G|------------------------------------------------------------------------------|
D|------------------------------------------------------------------------------|
A|------------------------------------------------------------------------------|
E|------------------------------------------------------------------------------|

e|---------------------------------------------------------------------------| Instrumental x8 
B|---------------------------------------------------------------------------|
G|---12-12-12-12---12-12-12-12---12-12-12-12---12-12-12-12-------------------| (This part is optional)
D|---------------------------------------------------------------------------|
A|---------------------------------------------------------------------------|
E|---------------------------------------------------------------------------|

e|--------0-3-5-7---8---7-5---8---7---0-3-5-7---8---7-5---8---7--------------| Instrumental 
B|--------------------------8---------------------------8--------------------|
G|---12----------------------------------------------------------------------|
D|---------------------------------------------------------------------------|
A|---------------------------------------------------------------------------|
E|---------------------------------------------------------------------------|            
Submit corrections


        Illusion  lessons Hard to play? Try these video lessons and learn fast Illusion  lessons
        
↑ Back to top | Tablatures and chords for acoustic guitar and electric guitar, ukulele, drums are parodies/interpretations of the original songs. You may use it for private study, scholarship, research or language learning purposes only