» » »

Zebrahead - House Is Not My Home Tabs

Artists:  A B C D E F G H I J K L M N O P Q R S T U V W X Y Z # 

House Is Not My Home Tabs

(ver. 2) Click to play this song!
Zebrahead
 Rating:
4/5 (4 votes)


 House Is Not My Home lessons Tabs too difficult? Try these video lessons and learn fast
 
                Title - House Is Not My Home (Track No. 7 On Album)
Artist - Zebrahead
Album - MFZB (2003)
Tuning - Standard (EADGBe)

Intro - 

|-------------------------|
|-------------------------|
|-------------------------|
|--9~-------6~-------444--| x2
|--9~-------6~-------444--|
|--7~-------4~-------222--|

Verse - Palm Muted

|-----------------------------|
|-----------------------------|
|-----------------------------|
|--9-------6--------4---------| x2
|--9 (x17)-6 (x13)--4 (x3)----|
|--7-------4--------2---------|

Pre-Chorus -

|----------|---------|
|----------|---------|
|----------|---------|
|--2-------|-4-------|
|--2 (x30)-|-4 (x9)--|
|--0-------|-2-------|
|....PM....|

Chorus -

|--------------------------|---------|---------|
|--------------------------|---------|---------|
|--------------------------|---------|-9-------|
|--9-------6-------7-------|-2-------|-9 (x17)-|
|--9 (x17)-6 (x17)-7 (x17)-|-2 (x17)-|-7-------|
|--7-------4-------5-------|-0-------|---------|
                              (Gt1)     (Gt2)   

Post-Chorus -

|-------------------------|
|-------------------------|
|-------------------------|
|--9~-------6~-------444--|
|--9~-------6~-------444--|
|--7~-------4~-------222--|

(Verse x2)

(Pre-Chorus)

(Chorus x2)

Bridge Pt.1 - Vocals

|----------------------------|
|----------------------------|
|----------------------------|
|--9999-9999-6666-6666-4444--|
|--9999-9999-6666-6666-4444--|
|--7777-7777-4444-4444-2222--|

Bridge Pt.2 - Solo

Gt.1 - Palm Muted (Slowly Build Up On The 2-4-4's)

|-------------------|
|-------------------|
|-------------------|
|--2-------4--------|
|--2 (x30)-4 (x17)--|
|--0-------2--------|

Gt.2

|----------------------|
|--7---7---------------|
|----8---8-8--------8--| x4
|------------8-9-10----|
|----------------------|
|----------------------|

Alt. Chorus - (1st One After Bridge)

|-------------------|----------|---------|---------|
|-------------------|----------|---------|---------|
|-------------------|----------|---------|-9-------|
|--9~-------6~------|--7-------|-2-------|-9 (x17)-|
|--9~-------6~------|--7 (x17)-|-2 (x17)-|-7-------|
|--7~-------4~------|--5-------|-0-------|---------|
                    |....PM....|  (Gt1)  |  (Gt2)  |

Resume Normal Chorus (Til End Of Track)


(Not %100 Sure About The Solo, But It Sounds Just Anout Right)
            
Submit corrections



        House Is Not My Home lessons Hard to play? Try these video lessons and learn fast House Is Not My Home lessons
        
↑ Back to top | Tablatures and chords for acoustic guitar and electric guitar, ukulele, drums are parodies/interpretations of the original songs. You may use it for private study, scholarship, research or language learning purposes only