» » »

Zara Larsson - Never Forget You Tabs

Artists:  A B C D E F G H I J K L M N O P Q R S T U V W X Y Z # 

Never Forget You Tabs

(ver. 1) Click to play this song!
Zara Larsson
 Rating:
4.3/5 (25 votes)

 Never Forget You  lessons Tabs too difficult? Try these video lessons and learn fast
 
                  'I used to be so happy'
E|----------------------------------|
B|----------------------------------|
G|----------------------------------|
D|---------------------2---2-4-5-4--|
A|-----------2-4-2-4-5---5----------|
E|-5-3-5-3-5------------------------|

E|----------------------------------|
B|---------------------5---5-7-8-7--|
G|-----------4-6-4-6-7---7----------|
D|-7-5-7-5-7------------------------|
A|----------------------------------|
E|----------------------------------|

  'cause once a time you were my'
E|--------------------------------------------------|
B|--------------------------------------------------|
G|---2------------------------2---------------------|
D|-----2-2-2-2--2-2-2-0---------2-2-2-2---2-2-2-0---|
A|----------------------2-------------------------2-|
E|-5------------------------5-----------------------|

E|---5------------------------5----------------------------|
B|-----5-5-5-5--5-5-5-----------5-5-5-5--5-5-5-------------|
G|--------------------7-4----------------------7-4--(\2/4)-|
D|-7------------------------7------------------------------|
A|---------------------------------------------------------|
E|---------------------------------------------------------|


  'I will never forget you'
E|--------------------------------------------------------------------------|
B|--------------------------------------------------------------------------|
G|--2-2--2---------2-2--2--------------2-2--2-----------------2-2-2-2-------|
D|---------2-0-------------0-2-2--------------2-0---------------------0-2-2-|
A|--------------------------------------------------------------------------|
E|-5-------------5-----------------5-5--------------5-5-5-5-5---------------|

E|-----5-5--5-----------5-5--5--------|
B|------------5------------------5-5--|
G|---------------7-------------7------|
D|-7-7--------------7-7---------------|x2
A|------------------------------------|
E|------------------------------------|

  'and I will never want much more'
E|-----------------------------------------------|
B|-----------------------------------------------|
G|-----2-4~~2-2------------2-4~~2---2------------|
D|---4----------4--------4--------4---4-2-0-2-4--|
A|-5--------------5----5-------------------------|
E|-----------------------------------------------|

E|-----5-7~~5-5-----------5-7~~5---5-----------|
B|---7----------7-------7--------7---7-5-3-5-7-|
G|-7--------------7---7------------------------|
D|---------------------------------------------|
A|---------------------------------------------|
E|---------------------------------------------|

 'I will never forget you'
E|-----------------------------------------------|
B|-----------------------------------------------|
G|-----2-2--2------------2-2--2------------------|
D|------------2-0---------------0-2-2--0-2-2-0---|
A|---------------------------------------------2-|
E|-5-5-------------5-5-5-------------------------|

E|-----5-5--5-----------5-5--5------------------|
B|------------5------------------5-5---3-5-5-3--|
G|--------------7--------------7---------------4|
D|-7-7--------------7-7-------------------------|
A|----------------------------------------------|
E|----------------------------------------------|

            
Submit corrections


        Never Forget You  lessons Hard to play? Try these video lessons and learn fast Never Forget You  lessons
        
↑ Back to top | Tablatures and chords for acoustic guitar and electric guitar, ukulele, drums are parodies/interpretations of the original songs. You may use it for private study, scholarship, research or language learning purposes only