» » »

Zao - Human Cattle Masses Marching Forward Tabs

Artists:  A B C D E F G H I J K L M N O P Q R S T U V W X Y Z # 

Human Cattle Masses Marching Forward Tabs

(ver. 1) Click to play this song!
Zao
 Rating:
2.6/5 (30 votes)

 Human Cattle Masses Marching Forward  lessons Tabs too difficult? Try these video lessons and learn fast
 
                Part 1:
D|-----------------------------------------|
A|-----------------------------------------|
F|9-8-9-8----------------------------------|
C|----------6------------------------------|
G|7-6-7-6---10-------0---------------------|
C|--------0----0-0-0-1-0-0-0-0-0-0-0-0-0-0-|
          .    . . .   . . . . . . . . . .

Part 1 Harmony:
D|-----------------------------------------|
A|-----------------------------------------|
F|9-8-9-8-9-13-------8---------------------|
C|-----------------------------------------|
G|7-6-7-6-7-11-------6---------------------|
C|-----------------------------------------|

Part 2:
D|--------------------------------|
A|--------------------------------|
F|--------------------------------|
C|--------------------------------|
G|--------------------------------|
C|1-1-1-1-1-1-1-1-1-1-1-1-1-1-1-1-|

D|--------------------------------|
A|--------------------------------|
F|--------------------------------|
C|7-7-7-7-7-7-7-7-7-7-7-7-7-7-7-7-|
G|5-5-5-5-5-5-5-5-5-5-5-5-5-5-5-5-|
C|--------------------------------|

D|--------------------------------|
A|--------------------------------|
F|--------------------------------|
C|--------------------------------|
G|6-6-6-6-6-6-6-6-6-6-6-6-6-6-6-6-|
C|6-6-6-6-6-6-6-6-6-6-6-6-6-6-6-6-|

Part 2 Extension:

D|--------------------------------|
A|--------------------------------|
F|--------------------------------|
C|--------------------------------|
G|5-5-5-5-5-5-5-5-5-5-5-5-5-5-5-5-|
C|5-5-5-5-5-5-5-5-5-5-5-5-5-5-5-5-|


Part 2 Harmony:
D|--------------------------------|
A|--------------------------------|
F|--------------------------------|
C|--------------------------------|
G|--------------------------------|
C|1-1-1-1-1-1-1-1-1-1-1-1-1-1-1-1-|

D|--------------------------------|
A|7-7-7-7-7-7-7-7-7-7-7-7-7-7-7-7-|
F|7-7-7-7-7-7-7-7-7-7-7-7-7-7-7-7-|
C|7-7-7-7-7-7-7-7-7-7-7-7-7-7-7-7-|
G|--------------------------------|
C|--------------------------------|

D|--------------------------------|
A|0-0-0-0-0-0-0-0-0-0-0-0-0-0-0-0-|
F|5-5-5-5-5-5-5-5-5-5-5-5-5-5-5-5-|
C|6-6-6-6-6-6-6-6-6-6-6-6-6-6-6-6-|
G|6-6-6-6-6-6-6-6-6-6-6-6-6-6-6-6-|
C|6-6-6-6-6-6-6-6-6-6-6-6-6-6-6-6-|

(Part 2 Extension Not Harmonized)

Part 3:
G|----5-------10-------5-------10-------------------|
C|0-0-5---0-0-10---0-0-5---0-0-10---0-0-0-0-0-0-0-0-|
  . .     . .      . .     . .      . . . . . . . .            
Submit corrections


        Human Cattle Masses Marching Forward  lessons Hard to play? Try these video lessons and learn fast Human Cattle Masses Marching Forward  lessons
        
↑ Back to top | Tablatures and chords for acoustic guitar and electric guitar, ukulele, drums are parodies/interpretations of the original songs. You may use it for private study, scholarship, research or language learning purposes only