» » »

Zac Brown Band - Colder Weather Tabs

Artists:  A B C D E F G H I J K L M N O P Q R S T U V W X Y Z # 

Colder Weather Tabs

(ver. 2) Click to play this song!
Zac Brown Band
 Rating:
4.3/5 (6 votes)

 Colder Weather lessons Tabs too difficult? Try these video lessons and learn fast
 
                Zac Brown - Colder Weather

Tuning - 1\2 Step Down

***All Chords Written As If In Standard Tuning***

Intro Tab:
-------------------------------------------------------12-----------------|
---------------9----9---9-9---9--9-9-9----9--9-9---9-9----12--------------|
---------------9----9---9-9---9--9-9-9----9--9-9---9-9--------------------|
-------------9h11---11--9-9---9--9-9-9h11-11-9-9---9-9---------9-9-x-x-9--|
-------7/9-----------------------------------------------------9-9-x-x-9--|
--0h7h9--------------------------------------------------------7-7-x-x-7--|


Chords: A A E E A A E E A A E E B


            A        B                E
She'd trade Colorado if he'd take her with him
            A              B               E
Closes the door before the winter lets the cold in,
    A              B              C#m       B        A
And wonders if her love is strong enough to make him stay,
      A               A
She's answered by the tail lights
        B                  E
Shining through the window pane


[Chorus:]
                A       E
He said I wanna see you again
        A               E
But I'm stuck in colder weather
        A              E
Maybe tomorrow will be better
       B
Can I call you then
                A        E
She said you're ramblin' man
          A          E
You ain't ever gonna change
          A             E
You gotta gypsy soul to blame
                      B
And you were born for leavin'


     A                B               E
At a truck stop diner just outside of Lincoln,
    A                     B             E
The night is black as the coffee he was drinkin',
           A                 B        C#m        B      A
And in the waitress' eyes he sees the same 'ol light shinin',
   A        A
He thinks of Colorado
        B              E
And the girl he left behind him




[Chorus:]
                A       E
He said I wanna see you again
        A               E
But I'm stuck in colder weather
        A              E
Maybe tomorrow will be better
       B
Can I call you then
                A        E
She said you're ramblin' man
          A          E
You ain't ever gonna change
          A             E
You gotta gypsy soul to blame
                  B                     A
And you were born for leavin' (born for leavin')


            F#       E
Well it's a winding road
                 B        C#m
When your in the lost and found
            A       E
You're a lover I'm a runner
       B
We go 'round 'n 'round
      A              E
And I love you but I leave you
        A              E
I don't want you but I need you
    A         E                B
You know it's you who calls me back here babe


Instrumental Break/Solo A A E E A A E E A A E E B

-------------------------------------------------12-----------------|
------9------9---9-9-----------9----9--9-9---9-9----12--------------|
------9------9---9-9---------- 9----9--9-9---9-9--------------------|
------9h11---11--9-9-----------9h11-11-9-9---9-9---------9-9-x-x-9--|
---------------------------7/9---------------------------9-9-x-x-9--|
----------------------0h7h9------------------------------7-7-x-x-7--|


[Chorus:]
                A       E
Oh I wanna see you again
        A               E
But I'm stuck in colder weather
        A              E
Maybe tomorrow will be better
       B
Can I call you then
          A        E       A
Cuz I'm a ramblin' man
  E                  G       D
I ain't ever gonna change
               B                     A
And I was born for leavin' (born for leavin')

           A               E
And when I close my eyes I see you

A              E
No matter where I am
      A            E                 B
I can smell your perfume through these whispering pines

              A       E
I'm with your ghost again
       A               E
It's a shame about the weather
       A             E
I know soon we'll be together
            B
And I can't wait till then
             A
I can't wait till then

Outro: Chords A A E E A A E E A A E E B B A   E

Outro Tab
-------------------------------------------------------12-----------------|
---------------9----9---9-9---9--9-9-9----9--9-9---9-9----12--------------|
---------------9----9---9-9---9--9-9-9----9--9-9---9-9--------------------|
-------------9h11---11--9-9---9--9-9-9h11-11-9-9---9-9---------9-9-9-x-x--|
-------7/9-----------------------------------------------------9-9-9-x-x--|
--0h7h9--------------------------------------------------------7-7-7-x-x--|


-------------------------------0--------|
--------------------------0-------------|
-------------------------1--------------|
--7----7-7--7--7--------2---------------|
--7----7-7--7--7-------2----------------|
--5----5-5--5--5------0-----------------|


                           B                 C#m
Heres how I play the B   --0--  and the C#m --4--|
                         --0--              --5--|
                         --4--              --6--|
                         --4--              --6--|
                         --2--              --4--|
                         --x--              --x--|

This Is pretty damn close to how Zac plays it live, his intro/break/outro
Are a bit different sometimes, watch a video of him playing it and make it your own but 
this how I play it anyways...Hope it Helps the guys like me who wanna play it down tuned 
like he does.
            
Submit corrections


        Colder Weather lessons Hard to play? Try these video lessons and learn fast Colder Weather lessons
        
↑ Back to top | Tablatures and chords for acoustic guitar and electric guitar, ukulele, drums are parodies/interpretations of the original songs. You may use it for private study, scholarship, research or language learning purposes only