» » »

Zac Brown Band - 2 Places At 1 Time Tabs

Artists:  A B C D E F G H I J K L M N O P Q R S T U V W X Y Z # 

2 Places At 1 Time Tabs

(ver. 1) Click to play this song!
Zac Brown Band
 Rating:
4.3/5 (29 votes)


 2 Places At 1 Time  lessons Tabs too difficult? Try these video lessons and learn fast
 
                [Intro]

e|------------------------------------------------------------|
B|---------------1-----3-----3--0-------0---------------------|
G|-0-----2-4---------0----0--------2--------2--------2h4p2p0--|
D|-----0-------0---2-----0---0-------0---------0-----0--------|
A|---2-------0---3--------------0---------0-------0--------0--|
E|-3-----3-------------3--------------------------------------|

e|------------------------------------------------------------|
B|---------------1-----3-----3--0-------0---------------------|
G|-0-----2-4---------0----0--------2--------2-----------------|
D|-----0-------0---2-----0---0-------0---------0------0-------|
A|---2-------0---3--------------0---------0--------0-----0----|
E|-3-----3-------------3--------------------------------------|            
Submit corrections



        2 Places At 1 Time  lessons Hard to play? Try these video lessons and learn fast 2 Places At 1 Time  lessons
        
↑ Back to top | Tablatures and chords for acoustic guitar and electric guitar, ukulele, drums are parodies/interpretations of the original songs. You may use it for private study, scholarship, research or language learning purposes only