Home » Y » Yu Piter »

Yu Piter - Wrappaa Tabs

Artists:  A B C D E F G H I J K L M N O P Q R S T U V W X Y Z # 

Wrappaa Tabs

(ver. 1) Click to play this song!
Yu Piter
 Rating:
3/5 (24 votes)
                |-----------------------------------------------------|
|-----------------------------------------------------|
|-5-8p5---5~-...-5-8p5---5----------------------------|
|-------6-------------6---6p5-6p5---5-----------------|
|---------------------------------8---8p7-8p7---------|
|---------------------------------------------9p8~----|

|---------------8---8-8-----|
|---------------8---8-8-----|
|-5-8p5---5----/8---8-8-...-|
|-------6-------------------|
|---------------------------|
|---------------------------|


Hallitseva basso (molli:)

|-----------------|
|-----------------|
|-3-------3---4---|
|-----3-----------|

Valiosio 1. (ei kitaraa):

C#  G#  C#  G#

Valiosio 2.:

C#  A#m

|--------------------------|
|--------------------------|
|--------------------------|
|--------------------------|
|---------1---------1-...--|
|-4--1--3---4--1--3--------|

Fm 

Hallitseva riffi duurissa:

|-----------------------------------------------------|
|-----------------------------------------------------|
|-5-9p5---5~-...-5-9p5---5----------------------------|
|-------7-------------7---7p5-7p5---5-----------------|
|---------------------------------8---8p7-8p7-5-------|
|-----------------------------------------------8~----|

|---------------8---8-8-----|
|---------------8---8-8-----|
|-5-9p5---5----/9---9-9-...-|
|-------7-------------------|
|---------------------------|
|---------------------------|

Basso:

|-----------------|
|-----------------|
|-3-------3---5---|
|-----3-----------|            
Submit corrections

↑ Back to top | Tablatures and chords for acoustic guitar and electric guitar, ukulele, drums are parodies/interpretations of the original songs. You may use it for private study, scholarship, research or language learning purposes only