Home » Y » Yu Piter »

Yu Piter - Porvariston Hillitty Charmi Tabs

Artists:  A B C D E F G H I J K L M N O P Q R S T U V W X Y Z # 

Porvariston Hillitty Charmi Tabs

(ver. 1) Click to play this song!
Yu Piter
 Rating:
2.6/5 (27 votes)
                INTRO & PRE-CHORUS
e-----------------------------------------------------------|
b-----------------------------------------------------------|
g-5-5-5-5-5-5-5-5-2-2-2-2-2-2-2-2-7-7-7-7-7-7-7-7-----------|
D-5-5-5-5-5-5-5-5-2-2-2-2-2-2-2-2-7-7-7-7-7-7-7-7-3-------5-|
A-3-3-3-3-3-3-3-3-0-0-0-0-0-0-0-0-5-5-5-5-5-5-5-5-3-------5-|
E-------------------------------------------------1-------3-|

(x)=XYLOFONI
e---(8)-(7)(5)--------(13)(12)(13)-|
b------------(8)-------------------|
g-5------5-5-------5------5-5------|
D-5------5-5-------5------5-5------|
A-3------3-3-------3------3-3------|
E----------------------------------|

e-----------------------------------|
b-----------------------------------|
g-5------5-5-------5------5-5-------|
D-5------5-5-------5------5-5-----3-|
A-3------3-3-------3------3-3-----3-|
E---------------------------------1-|
  Kartanonne on linnanne...
e--------------------------------------------------------------------|
b--------------------------------------------------------------------|
g--------------------------------------------------------------------|
D-5--5-5--9--9-9----7--7-7---3--3-3------5--5-5--2--2-2-------7--7-7-|
A-3--3-3--7--7-7----7--7-7---3--3-3------3--3-3--0--0-0-------5--5-5-|
E-------------------5--5-5---1--1-1----------------------------------|
  Se Patrician ...

CH:
e---------------------------------------------|
b---------------------------------------------|
g10--10-10-10--10-5-5---5---5---5-------7-----|
D10--10-10--9--10-5-5---5---5---5-3-----7---5-|
A-8--8--8---8---8-3-3---3---3---3-3-----5---5-|
E---------------------------------1---------3-|
  Ei ole meidan...

e------------------------------------------------|
b------------------------------------------------|
g-1010--10--101010-5-5---5---5---5-------9---9---|
D-1010---9--101010-5-5---5---5---5-3-3---9---9-7-|
A-8--8---8---8-8-8-3-3---3---3---3-3-3---7---7-7-|
E----------------------------------1-1---0-----5-|            
Submit corrections

↑ Back to top | Tablatures and chords for acoustic guitar and electric guitar, ukulele, drums are parodies/interpretations of the original songs. You may use it for private study, scholarship, research or language learning purposes only