Home » Y » Yu Piter »

Yu Piter - Murhaaja Soittaa Pasuunaa Tabs

Artists:  A B C D E F G H I J K L M N O P Q R S T U V W X Y Z # 

Murhaaja Soittaa Pasuunaa Tabs

(ver. 1) Click to play this song!
Yu Piter
 Rating:
3.6/5 (27 votes)
                INTRO: (bassolla)

g----------------------------------|
D----------------------------------|
A-----------------5-5---0-3-3-5(0)-|
E-3-3---0-3-3---0---------------0--|

SAE:
e---------------------------------|
b---------------------------------|
g---------------------------------|
D-----------------7---7---5-5-7-2-|
A-5---5-5-5---5-5-5---5-0-3-3-5-0-|
E-3---3-0-3---3-0-----------------|


e---------------------------------|
b---------------------------------|
g---------------------------------|
D-----------------7-7-7-7-7-7-5-5-|
A-2-2-2-2-2-2-5-5-5-5-5-5-5-5-3-3-|
E-0-0-0-0-0-0-3-3-.-.-.-.-.-.-.-.-|
  . . . . . . . .
     Ja naisensa on naiset...

KIRKAS AANI
e------------|
b--------3-~-|
g-----0-~----|
D--4-~-------|
A------------|
E------------|


e-----------------------------------------|
b-----------------------------------------|
g-5-----4-2-----8-------9-------7-------8-|
D-5-----4-2-----8-------9-------7-------8-|
A-3-----2-0-----6-------7-------5-------6-|
E-----------------------------------------|
  Tuprauttaa..


KERTOSAE:

e--------------------------------------------------------|
b--------------------------------------------------------|
g---------------------------------------4--------------7-|
D-------------------------7-7-7-77-2-2224--------------7-|
A-7-7-7-779-9-9-995-5-5-555-5-5-55-0-0002--2-2-2-3-333-5-|
E-5-5-5-557-7-7-773-3-3-33-------------------------------|
  . . . ... . . . . . . ... . . .. . ...   . . . . ...

URKU SOVITETTUNA KITARALLE:

e------------------------------------------10--------11-11-10-11p10-8-8/6-5----|
b--8-----9---8-7h8-8----/11----8-7h8-8---------8-7h8---------------------------|
g------------------------------------------------------------------------------|
D------------------------------------------------------------------------------|
A------------------------------------------------------------------------------|
E------------------------------------------------------------------------------|            
Submit corrections

↑ Back to top | Tablatures and chords for acoustic guitar and electric guitar, ukulele, drums are parodies/interpretations of the original songs. You may use it for private study, scholarship, research or language learning purposes only