Home » Y » Yu Piter »

Yu Piter - Mina Olen Myyra Tabs

Artists:  A B C D E F G H I J K L M N O P Q R S T U V W X Y Z # 

Mina Olen Myyra Tabs

(ver. 1) Click to play this song!
Yu Piter
 Rating:
2.3/5 (29 votes)
                |------------------------------------------------------------------|
|------------------------------------------------------------------|
|------------------------------------------------------------------|
|-4---5---------------------------4---5----------------------------|
|-4---5---------------------------4---5----------------------------|
|-2---3---------------------------2---3----------------------------|


||----------------------------------||
||----------------------------------||
||-----------------5-4---4--2-4-----||
||-----------5-4-2------------------||
||-------4-5------------------------||
||----------------------------------||


   G                       Bb
||-----------------------------------------------||
||-----------------------------------------------||
||-----------5-4---4---2-4-3---3---2-------------||
||-----5-4-2-------------------------5-3---------||
||-4-5-----------------------------------5-------||
||-----------------------------------------------||
            
Submit corrections

↑ Back to top | Tablatures and chords for acoustic guitar and electric guitar, ukulele, drums are parodies/interpretations of the original songs. You may use it for private study, scholarship, research or language learning purposes only