Home » Y » Yu Piter »

Yu Piter - Mina En Parantunut Tabs

Artists:  A B C D E F G H I J K L M N O P Q R S T U V W X Y Z # 

Mina En Parantunut Tabs

(ver. 1) Click to play this song!
Yu Piter
 Rating:
3.5/5 (25 votes)
                
E|---------12----|
B|---------------| (huiluaanilla)
G|-----7------12-|
D|---7-----------|
A|-7-------------|
E|---------------|


E|---|
B|---|
G|-9-|
D|-8-|
A|-7-|
E|---|


E|-----------------------------|
B|-----------------------------|
G|-----------------------------|(tama ei valttamatta anna oikeata kuvaa 
D|---------------------------3-| miten tama riffi menee)
A|-------3-------------------1-|
E|-0-0-0-1p0-0-0-0-0---0-0-0---|
   . . .     . . . .   . . .
E|-----------|
B|-----------|
G|-----------|
D|-----------|
A|-5-3-------|
E|-----6-4-2-|



E|---------------------------------|
B|---------------------------------|
G|---------------------------------|
D|-4---6-8---7-------------------8-|
A|-4---6-8---7---5-3-------------8-|
E|-2---4-6---5-------6-4-2--0----6-|


E|------------|
B|------------|
G|10---9---12-|
D|-9---8---11-|
A|-8---7---10-|
E|------------|

E|-------------|
B|-------------|
G|-------------|
D|-------------|
A|-6-5-3-------|
E|-------6-3-5-|

                                                          *=soi viimeisella kerralla
E|-----1------1------1------1----------------------------(0)-|
B|---3------3------3------3--------2------2------2------2----|
G|-2------2------2------2--------4------4------4------4------|
D|-----------------------------4------4------4------4--------|
A|-----------------------------------------------------------|
E|-----------------------------------------------------------|


E|---------------|
B|---------------|
G|---------9-9-9-|
D|-9-9-9---8-8-8-|
A|-8-8-8---7-7-7-|
E|-7-7-7---------|


E|----12-------------12-----------12----|
B|-12-----------10------12---10------11-|
G|-------9-10------9------------9-------|
D|--------------------------------------|
A|--------------------------------------|
E|--------------------------------------|

E|----15---------------15------------15----|
B|-15------------13-------15---13-------14-|
G|-------12-13------12------------12-------|
D|-----------------------------------------|
A|-----------------------------------------|
E|-----------------------------------------|


E|----------------------------------------|
B|----------------------------------------|
G|---------12-12-12---13-13-13---15-15-15-|
D|-9-9-9---11-11-11---12-12-12---14-14-14-|
A|-8-8-8---10-10-10---11-11-11---13-13-13-|
E|-7-7-7----------------------------------|


E|-----------------------------|
B|-----------------------------|
G|-----------------------------|
D|-----------------------------|
A|-----------------------------|
E|-0-0-0-1p0-0-0-0-0---0-0-0-0-|            
Submit corrections

↑ Back to top | Tablatures and chords for acoustic guitar and electric guitar, ukulele, drums are parodies/interpretations of the original songs. You may use it for private study, scholarship, research or language learning purposes only