Home » Y » Yu Piter »

Yu Piter - Kirvesperseet Tabs

Artists:  A B C D E F G H I J K L M N O P Q R S T U V W X Y Z # 

Kirvesperseet Tabs

(ver. 1) Click to play this song!
Yu Piter
 Rating:
4.7/5 (20 votes)
                INTRO:
e---------------------------|
b---------------------------|
g-----------------3-3-------|
D-4-2h3h4-0-----2-3-3-------|
A-----------3-3---1-1-------|
E---------------------------|


e----------------------------------|
b---------------4------------------|
g-----------------4----------------|
D-4-2h3h4-2h3h4------4-2h3h4-0---2-|
A------------------------------3---|
E----------------------------------|

KIRKAS AANI
e-----------------------|
b-----------------------|
g-----------223-334-4^4-|
D-2-223-334-------------|
A-----------------------|
E-----------------------|


e---------------------------------|
b---------------------------------|
g---------------------------------|
D-7-7-787101010-5-4-4-454-2-2-242-|
A-5-5-565-8-8-8/3-2-2-232-0-0-020-|
E---------------------------------|


e-----------------------------------------------------------------|
b-----------------------------------------------------------------|
g-----------------------------------------------------------------|
D---------7-7-7-7-5-5-5-5-7-7-7-7---------7-7-7-7-5-5-5-5-7-7-7-7-|
A-5-5-5-5-5-5-5-5-3-3-3-3-5-5-5-5-5-5-5-5-5-5-5-5-3-3-3-3-5-5-5-5-|
E-3-3-3-3-------------------------3-3-3-3-------------------------|

G       D            C            D            G
Ja mina lahetan heinasirkat, lavantaudin lapsillesi,

          D             C              D         G
ennenkuin paiva vaihtuu yoksi-lapamato sisallesi pesii,

     D            C
mina lahetan heinasirkat, ja ennenkuin ehtoneet ehdit ottaa

     D                  A
niin lapamato sisallesi pesii

e---------------------------------|
b---------------------------------|
g---------------------------------|
D-7-7-7-710101010-5-5-5-5-2-2-2-2-|
A-7-7-7-710101010-5-5-5-5-2-2-2-2-|
E-5-5-5-5-8-8-8-8-3-3-3-3-0-0-0-0-|


e-----------------------------------------------------------------------------|
b-----------------------------------------------------------------------------|
g-----------------------------------------------------------------------------|
D-3-2-0---3-2-0---5-3-2-0-5-3-2-0-3-2-0---3-2-0-------------------------------|
A-------3-------3-----------------------3-------3-5-2---3-3-3-3-5-5-5-5-------|
E-----------------------------------------------------3-1-1-1-1-3-3-3-3-------|

e-------------------|-----------------------------------|
b-------------------|----13-----------------------------|
g-------------------|-14----14-12\9/11-11-11p9----------|
D-------------------|--------------------------12-12-10-|
A-------------------|-----------------------------------|
E-1-0-1-2-3-2-3-4-5-|-----------------------------------|

e-----------------------------------|-----------------------------------------|
b----13-----------------------------|----13----13----12------13----13----15---|
g-14----14-12\9/11-11-11p9----14-14-|-14----14----13------14----14----16------|
D--------------------------12-------|-----------------------------------------|
A-----------------------------------|-----------------------------------------|
E-----------------------------------|-----------------------------------------|

OUTRO:
e---------------------------------|
b---------------------------------|
g---------------------------------|
D---------------------------------|
A-7-6-6-55---------7-6-6-55-------|
E-----------77-6-5----------7p6-5-|
......SSSSUUUUUURRRRREEEEEENNNNN KIVEN!   ...ja isken.            
Submit corrections

↑ Back to top | Tablatures and chords for acoustic guitar and electric guitar, ukulele, drums are parodies/interpretations of the original songs. You may use it for private study, scholarship, research or language learning purposes only