Home » Y » Yu Piter »

Yu Piter - Hullu Planeetta Chords

Artists:  A B C D E F G H I J K L M N O P Q R S T U V W X Y Z # 

Hullu Planeetta Chords

(ver. 1) Click to play this song!
Yu Piter
 Rating:
3.2/5 (26 votes)
                Cm   Fm    Bb       Cm    Ab 
Aurinko silloin kai liikaakin

Eb       Fm F#    F  
lammitti meita ja merta,

Cm     Fm   Bb  Cm  G   
kun vaimoni silikonirinnat

Eb          Fm  F#   F
alkoivatkin suihkuta verta.

Cm    Fm      Bb     Cm     G
Kaipaamaan jaavat lapset ja mies

    Eb       Fm   F#     F
kun lasarettivisiitti on pitka

Cm     Fm   Bb      Cm   G
ja kun kylmenee keittion lies

Eb         Fm   F#     C
auta eivat lohdutukset mitkaan silloin...


F                   C
Kuka tasta kaikesta vastaa?

F                      C
Kuka vie mut toihin ja syotaa pastaa?

F                   C
Tv:n tarjontakin on kurjaa

Ab         Gm           C
Kuka pesee pyykin? Kuka maailman pelastaa? 

C       Dm          Em          F
Suuri suu hotkaisee maan! Me tuijotetaan

    Fm   C#         Ab      Eb 
kun tv---vastaanottimessa vedellaan vessaa, 

Ab   Gm  F#  F    E    Ab    Gm
OU - TO  E - LA - MA,  HULLU PLANEETTA.
                                                                 
                                                                    
 C                  Bb         C          C                       Bb           C
                                                                  h  p
|----------------------------------------|----------------12-13-15/17\15-------15-------|
|--13-11-13-----10-11-10-----------------|----13-11-13-15----------------17-18----------|
|------------12----------12-10-12--------|----------------------------------------------|
|-----------------------------------10-12|10---------------------------------------10-12|
|----------------------------------------|----------------------------------------------|
|----------------------------------------|----------------------------------------------|


 Am                   G          F          C                      Bb            C
                                                                  h  p
|------------------------------------------|----------------12-13-15/17\15-------15-------|
|----13-11-13-----10-11-10-----------------|----13-11-13-15----------------17-18----------|
|--------------12----------12-10-12--------|----------------------------------------------|
|10-----------------------------------10-12|10--------------------------------------------|
|------------------------------------------|----------------------------------------------|
|------------------------------------------|----------------------------------------------|



 Cm    Fm      Bb    Cm   Ab 
"kuitenkaan ei syyta kaaokseen", 

Eb         Fm F#  F
lepyttelee Lindin Arvi.

Cm   Fm   Bb    Cm    Ab
kuuluttajaparka parkaisee, 

Eb         Fm F#      C
kun kohoaa ohimostaan sarvi, 



       F                       C
huutaa apuun kaikkivaltaa, pakoon porhaltaa, 

F                      C
minne? herraties, talonmies

F                C
epahuomiossa tuo tuonen

Ab          Gm       C
kun lumen mukana luo hukkaan pienen Suomen

C       Dm          Em          F
suuri suu hotkaisee maan! me tuijotetaan

    Fm   C#         Ab      Eb 
kun tv---vastaanottimessa vedellaan vessaa, 

Ab   Gm  F#  F    E    Ab    Gm
OU - TO  E - LA - MA,  HULLU PLANEETTA.

C       Dm          Em          F
suuri suu hotkaisee maan! me tuijotetaan

    Fm   C#         Ab      Eb 
kun tv---vastaanottimessa vedellaan vessaa, 

Ab   Gm  F#  F    E    Ab    Gm
OU - TO  E - LA - MA,  HULLU PLANEETTA.


 C                  Bb         C          C                       Bb           C
                                                                  h  p
|----------------------------------------|----------------12-13-15/17\15-------15-------|
|--13-11-13-----10-11-10-----------------|----13-11-13-15----------------17-18----------|
|------------12----------12-10-12--------|----------------------------------------------|
|-----------------------------------10-12|10---------------------------------------10-12|
|----------------------------------------|----------------------------------------------|
|----------------------------------------|----------------------------------------------|


 Am                   G          F          C                     Bb             C
                                                                  h  p
|------------------------------------------|----------------12-13-15/17\15-------15-------|
|----13-11-13-----10-11-10-----------------|----13-11-13-15----------------17-18----------|
|--------------12----------12-10-12--------|----------------------------------------------|
|10-----------------------------------10-12|10---------------------------------------10-12|
|------------------------------------------|----------------------------------------------|
|------------------------------------------|----------------------------------------------|

 C                    Bb         C          C                     Bb             C
                                                                  h  p
|------------------------------------------|----------------12-13-15/17\15-------15-------|
|----13-11-13-----10-11-10-----------------|----13-11-13-15----------------17-18----------|
|--------------12----------12-10-12--------|----------------------------------------------|
|10-----------------------------------10-12|10---------------------------------------10-12|
|------------------------------------------|----------------------------------------------|
|------------------------------------------|----------------------------------------------|


 Am                  G          F           C                     Bb             C
                                                                  h  p
|------------------------------------------|----------------12-13-15/17\15-------15-------|
|----13-11-13-----10-11-10-----------------|----13-11-13-15----------------17-18----------|
|--------------12----------12-10-12--------|----------------------------------------------|
|10-----------------------------------10-12|10--------------------------------------------|
|------------------------------------------|----------------------------------------------|
|------------------------------------------|----------------------------------------------|


F                  C
varjo lankeaa ylle katon:

F                 C
esine lentava, tunnistamaton

F                    C
laskeutuu ja vie mukanaan

Ab           Gm          C                   C
meidat, supermarketin ja yhden pienen Suomen maan


      Dm             Em          F          Fm
se kosmokseen potkaistaan! kuin tv:ssa konsanaan

    C#        Ab           Eb    
kotitalon ikkunoissa naytelmaa vaihdellaan.

Ab   Gm  F#  F    E    Ab    Gm
OU - TO  E - LA - MA,  HULLU PLANEETTA.

C      Dm         Em           F
pimeys peittaa taivaan.  me tuijotetaan, 

    Fm   C#         Ab      Eb 
kun tv---vastaanottimessa vedellaan vessaa, 

Ab   Gm  F#  F    E    Ab    Gm
OU - TO  E - LA - MA,  HULLU PLANEETTA.

C       Dm          Em          F
suuri suu hotkaisee maan! me tuijotetaan

    Fm   C#         Ab      Eb 
kun tv---vastaanottimessa vedellaan vessaa, 

Ab   Gm  F#  F    E    Ab       Gm
OU - TO  E - LA - MA,  leijuvat lakanat ja

Ab     Gm           Ab    Gm
kummia kanavia...   HULLU PLANEETTA!

C      F   Bb   C 





Taman tabulaatuurin on tehnyt Jarkko Sakkinen yhdessa Jarkko Martikaisen kanssa.            
Submit corrections

↑ Back to top | Tablatures and chords for acoustic guitar and electric guitar, ukulele, drums are parodies/interpretations of the original songs. You may use it for private study, scholarship, research or language learning purposes only