Home » Y » Yu Piter »

Yu Piter - Domus Perkele Tabs

Artists:  A B C D E F G H I J K L M N O P Q R S T U V W X Y Z # 

Domus Perkele Tabs

(ver. 1) Click to play this song!
Yu Piter
 Rating:
3.6/5 (22 votes)
                intro:
e--------------------------------------|
b--------------------------------------|
g-13-13-11-11-9-9-8-8-6-6--------------|
d-------------------------9-9-6-6------|
a---------------------------------9-9--|
e--------------------------------------|
K2.B
Kolmanella kerralla toinen kitara mukaan

Syvll maan sisassa...
e---------------------------------------------------------|
b---------------------------------------------------------|
g-13-13-11-11-9-9-8-8-6-6---------------------------------|
d-------------------------9-9-6-6------6-----8------7-6-7-|
a---------------------------------9-9----9-9---9-9--------|
e---------------------------------------------------------|
K2.B                                                A   A


Sen ovessa on paakallo ja reisiluut...
K1
e-----------------------------------------------------------------------|
b-----------------------------------------------------------------------|
g-9-8-9-8-9-8-9-8-9-8-9-8-9-8-9-8-9-8-9-8-9-8-9-8-9-8-9-8-9-8-9-8-9-8---|
d---------------------------------------------------------------------9-|
a-----------------------------------------------------------------------|
e-----------------------------------------------------------------------|

e------------------------------------|
b------------------------------------|
g----9-8-9-8-9-8-9-8-9-8-------------|
d------------------------9-----7-6-7-|
a------------------------------------|
e------------------------------------|


K2
e---7-7-----7-7-----7-7-----7-7-----7-7-----7-7-----7-7-----7-7---------|
b-------9-9-------------9-9-------------8-8-------------8-8------11-9-7-|
g-----------------------------------------------------------------------|
d-----------------------------------------------------------------------|
a-----------------------------------------------------------------------|
e-----------------------------------------------------------------------|

e-----------------------------------|
b--9-7-9-7-9-7-9-7-9-7-7------5-4-5-|
g-----------------------------------|
d-----------------------------------|
a-----------------------------------|
e-----------------------------------|

Ennen B-osaa
e-------------------|
b-------------------|
g-8-8-7-8---8-7-8---|
d-8-8-7-8---8-7-8---|
a-6-6-5-6---6-5-6---|
e-------------------|

Siis tervetuloa.
E    G        A#

Ennen kertosaetta
e-------------------------------------|
b-------------------------------------|
g-7-7-6-7---7-6-7-8--8-7-8-9-10-11-12-|
d-7-7-6-7---7-6-7-8--8-7-8-9-10-11-12-|
a-5-5-4-5---5-4-5-6--6-5-6-7-8--9--10-|
e-------------------------------------|

Bassokuvio
g---------------------------------------------------------------|
d---------------------------------------------------------------|
a-2-2-2--2-2-----------------------------------------2-2-2--2-2-|
e------------0-0-0--2-2-2--0-0-0--0-0--2-2-2--0-0-0-------------|

g---------------------------------------|
d---------------------------------------|
a---------------------------------------|
e-0-0-0--2-2-2--4-4-4--4-4--2-2-2-0-0-0-|

Kerto:

Ja Tanssiaiset yon mittaiset Behemot isantanaan.
   B           E      F#     E       F#  E
(Domus perkeleessa tanaan, Domus perkeleessa...
 B          E      F#     G#         F#     E


On talo taynna, eteinen puolillaan ja pihallakin
   D#           E       C#            F#     G# F#
Pitka jono palelee... Ystavat: Domus Perkele!
D#         E          C#       F#

Keskiyolla kokoonnutaan...
e---------------------------------------------------------|
b---------------------------------------------------------|
g-13-13-11-11-9-9-8-8-6-6---------------------------------|
d-------------------------9-9-6-6------6-----8------7-6-7-|
a---------------------------------9-9----9-9---9-9--------|
e---------------------------------------------------------|
K2.B                                                A   A


Joka valoisan paivan varalle...
K1
e------------------------------------------------------------------------|
b------------------------------------------------------------------------|
g-9-8-9-8-9-8-9-8-9-8-9-8-9-8-9-8-9-8-9-8-9-8-9-8-9-8-9-8-9-8-9-8-9-8----|
d---------------------------------------------------------------------9--|
a------------------------------------------------------------------------|
e------------------------------------------------------------------------|

e-------------------------|
b-------------------------|
g-9-8-9-8-9-8-9-8-9-8-----|
d---------------------9---|
a-------------------------|
e-------------------------|

K2
e---7-7-----7-7-----7-7-----7-7-----7-7-----7-7-----7-7-----7-7----------|
b-------9-9-------------9-9-------------8-8-------------8-8------11-9-7--|
g------------------------------------------------------------------------|
d------------------------------------------------------------------------|
a------------------------------------------------------------------------|
e------------------------------------------------------------------------|

e--------------------------|
b-9-7-9-7-9-7-9-7-9-7-7----|
g--------------------------|
d--------------------------|
a--------------------------|
e--------------------------|


Ennen B-osaa
e-------------------|
b-------------------|
g-8-8-7-8---8-7-8---|
d-8-8-7-8---8-7-8---|
a-6-6-5-6---6-5-6---|
e-------------------|

Ja he ovat aikeissa lisaantya
E         B ( G )    D ( A# )

O-on talo taynna, eteinen puolillaan ja pihallakin
F#   D#           E       C#            F#     G# F#
Pitka jono palelee... Ystavat: Domus Perkele!
D#         E          C#      F#

CH:
Ja Tanssiaiset yon mittaiset Behemot isantanaan.
   B           E      F#     E       F#  E
(Domus perkeleessa tanaan, Domus perkeleessa...
 B          E      F#   G#   F#   E


Huudon jalkeen muut soittaa kertosaetta mutta kitara 1
- e-------------11----12----------------11------------- -|
-.b-12-11-12-14----12-------12-11-12-14----12-11-12----.-|
- g----------------------11---------------------------- -|
-.d----------------------------------------------------.-| 4X
- a---------------------------------------------------- -|
- e---------------------------------------------------- -|

Behehmot polkkaa pirun polkkaa parketilla silla
B        E       F#    E            F#    E
elo on tanssia ruusuilla ja amarylliksilla
B                    G#        F#          B            
Submit corrections

↑ Back to top | Tablatures and chords for acoustic guitar and electric guitar, ukulele, drums are parodies/interpretations of the original songs. You may use it for private study, scholarship, research or language learning purposes only