Home » Y » Yu Piter »

Yu Piter - Daavidin Fuzz Tabs

Artists:  A B C D E F G H I J K L M N O P Q R S T U V W X Y Z # 

Daavidin Fuzz Tabs

(ver. 1) Click to play this song!
Yu Piter
 Rating:
2/5 (29 votes)
                INTRO
e--------------------|
b--------------------|
g---5----5----5----5-|
D-5-5--5-5--5-5--5-5-|
A-5-3--5-3--5-3--5-3-|
E-3----3----3----3---|

e-----------------------------------------------------------------------------|
b-----------------------------------------------------------------------------|
g----------7----------------7-------------------------------------------------|
D-5--------7------7---------7-------5---5--5--5--5----5--7----7-----7---------|
A-5--------5------7---------5-------5---5--5--5--5----5--7----7-----7---------|
E-3---------------5-----------------3---3--3--3--3----3--5----5-----5---------|
    Sanoin menkaa tayttakaa maa, ja nyt ne toisillaan maatani lannoittaa...


e-------|
b-------|
g-7---5-|
D-7---5-|
A-5---3-|
E-------|
..Se  on  DAAVIDIN FUZZ!


e------------------------------------|
b------------------------------------|
g-7---------------5------------------|
D-7---------------5----------------3-|
A-5---------------3----------------3-|
E----------------------------------1-|
  Vesissa syvissa, synkissa seilasi herranne huoneen vaki...


e-----------------------------------------------------------------------------|
b-----------------------------------------------------------------------------|
g-7---------------5-----------------------------------------------------3---5-|
D-7---------------5---------------3-------------------------------------3---5-|
A-5---------------3---------------3-------------------------------------1---3-|
E---------------------------------1-------------------------------------------|
    Ja vapahtaja jaa kun on paivanselvaa etta lapset kaipaa taas ymmartajaa

e-----------------------------------------------------------------------------|
b-----------------------------------------------------------------------------|
g-----------------------------------------------------------------------------|
D-----------------------------------------------------------------------------|
A-5-5-5-5-5-5-5-5-3-3-3-3-3-3-3-3-------------------------0-1-3-0-------------|
E---------------------------------1-1-1-1-1-1-1-1-1-0-1-3---------------------|
  Hiesta kiillellen...

e---------------------------------|
b---------------------------------|
g-3------------2--------5-------5-|
D-3------------2-----5--5----5--5-|
A-1------------0-----5--3----5--3-|
E--------------------3-------3----|
..mun       DAAVIDIN FUZZ!!!

e---------------|
b---------------|
g---------------|
D---------------|
A-3-3-3---5-5-5-|
E---------------|
  OI!!!   SE SOI!!!            
Submit corrections

↑ Back to top | Tablatures and chords for acoustic guitar and electric guitar, ukulele, drums are parodies/interpretations of the original songs. You may use it for private study, scholarship, research or language learning purposes only