Home » Y » Yu Piter »

Yu Piter - Belsebub Ei Nuku Koskaan Tabs

Artists:  A B C D E F G H I J K L M N O P Q R S T U V W X Y Z # 

Belsebub Ei Nuku Koskaan Tabs

(ver. 1) Click to play this song!
Yu Piter
 Rating:
3.1/5 (26 votes)
                INTRO:
e---2-------2-------2-------3--------------------------2-2-|
b-----3-------2-------1-------0----3-------5---2---------3-|
g-------2-------3-------2-------0----3-----5---2-2---2---2-|
D-0-------0-------0--------------------3---5---2---0-----0-|
A---------------------------------1------3---0-------------|
E-------------------------3--------------------------------|
  Joskus oiden tunteina...

e-----------------2-------3-2-----|
b---3-------5---2-3-----3-----3---|
g-----3-----5---2-----2---------2-|
D-------3---5---2---0-------------|
A-1-------3---0-------------------|
E---------------------------------|
  Ja tee , mita teet...

SAE:
e-------------------------------|
b-------------------------------|
g-------------------------------|
D-7-----4/5-------7---41/5------|
A-5-x-x-2/3---6/7-5-x-2/3-6/7-3-|
E-----------x-4/5---------4/5-1-|

KITARA LAULUN ALLA
e-----------------------------|
b-----------------------------|
g-----------------------------|
D-5h6h7-7-7-5h6h7-7-7-5h6h7-7-|
A-----------------------------|
E-----------------------------|

KERTOSAE
e------------------------------------|
b------------------------------------|
g-3-----5-----7--------3-----5-----4-|
D-3-----5-----7--------3-----5-----4-|
A-1-----3-----5--------1-----3-----2-|
E------------------------------------|
  Tee   mita teet , kunhan muistat vaan:

e------------------------------------|
b------------------------------------|
g---------4-------------3----5-----7-|
D---5--7--4-------------3----5-----7-|
A---5--7--2-------------1----3-----5-|
E---3--5-----------------------------|
 vanha Belsebub ei      nuku    koskaan

e------------------------------------------------------------------------------|
b------------------------------------------------------------------------------|
g-7-----------------4----------------------------------------------------------|
D-7-----------------4----------------------------------------------------------|
A-5-----------------2----------------------------------------------------------|
E-----------------------------------2-222-2-3-3-4-444-5-555-5-4--3-------------|
                                    x xxx x x x x xxx x xxx x x  x
  Poistaakin lian , vaientaa sian , lapsetkaan ei edes itkea uskalla

e--------------------------------------------------------------|
b--------------------------------------------------------------|
g--------------------------------------------------------------|
D-2------2---2--2---5-----7--------8-8-8-8-8-8-8-8-8-8-8-8-8-8-|
A-2------2---2--2---5-----7--------8-8-8-8-8-8-8-8-8-8-8-8-8-8-|
E-0----x-0--x0--0---3-----5--------6-6-6-6-6-6-6-6-6-6-6-6-6-6-|
  Saatanan suurennuslasin alla ... suurinkin mies on pieni pian            
Submit corrections

↑ Back to top | Tablatures and chords for acoustic guitar and electric guitar, ukulele, drums are parodies/interpretations of the original songs. You may use it for private study, scholarship, research or language learning purposes only