Home » Y » Youth Brigade »

Youth Brigade - Guns Are For.... Tabs

Artists:  A B C D E F G H I J K L M N O P Q R S T U V W X Y Z # 

Guns Are For.... Tabs

(ver. 1) Click to play this song!
Youth Brigade
 Rating:
4/5 (4 votes)
                b = bend
~ = play alot of times

During bass intro:
D --5--5--5--5--5--5------------------------------------------------
A --5--5--5--5--5--5------------------------------------------------
E --3--3--3--3--3--3------------------------------------------------
    b              b

Verse:
G -----7-----10--
D --5--7--8--10--
A --5--5--8--8---
E --3-----6------

Refrain:
G ---------7------------
D --10--8--7--8--10--8--
A --10--8--5--8--10--8--
E --8---6-----6--8---6--

Then jump directly to the verse riff. After that this refrain riff:
G ---------7----------------
D --10--8--7--8--10--8--5~--
A --10--8--5--8--10--8--5~--
E --8---6-----6--8---6--3~--

After that the bass-alone-part comes. After that, this bridge:
G --8-----7-----8-----7--
D --8--8--7--5--8--9--7--
A --6--8--5--5--6--9--5--
E -----6-----3-----7-----

After that, the verse and then the refrain again. Then the verse for
a short time, and then the bridge again.
            
Submit corrections

↑ Back to top | Tablatures and chords for acoustic guitar and electric guitar, ukulele, drums are parodies/interpretations of the original songs. You may use it for private study, scholarship, research or language learning purposes only