Home » Y » Your Demise »

Your Demise - Burnt Tongues Bass

Artists:  A B C D E F G H I J K L M N O P Q R S T U V W X Y Z # 

Burnt Tongues Bass
Version #1
Your Demise


Copy URL
Tuning: C#, G#, C#, F#

Chorus - 00.00 - 00.26

F#|---------------------------------------------------------------------------|
C#|---------------------------------------------------------------------------|
G#|---------------------------------------------------------------------------|
C#|-1-0--0--0-0--0-0---0-0-0-0--0-0-0-0--1-0--0--0-0--0-0--6-6-6--6-6-6-------|

F#|---------------------------------------------------------------------------|
C#|---------------------------------------------------------------------------|
G#|--------------------------------------------------------1-1-1--1-1-1-------|
C#|-1-0--0--0-0--0-0---0-0-0-0--0-0-0-0--1-0--0--0-0--0-0---------------------|

F#|---------------------------------------------------------------------------|
C#|---------------------------------------------------------------------------|
G#|---------------------------------------------------------------------------|
C#|-1-0--0--0-0--0-0---0-0-0-0--0-0-0-0--1-0--0--0-0--0-0--6-6-6--6-6-6-------|

F#|---------------------------------------------------------------------------|
C#|---------------------------------------------------------------------------|
G#|--------------------------------------------------------1-1-1--1-1-1-------|
C#|-1-0--0--0-0--0-0---0-0-0-0--0-0-0-0--1-0--0--0-0--0-0---------------------|

Verse - 00.26 - 01.57

F#|-------------|
C#|-------------|
G#|-------------|
C#|-10/1--0-0---|

F#|---------------------------------------------------------------------------|
C#|---------------------------------------------------------------------------|
G#|---------------------------------------------------------------------------|
C#|-7-0-0-0-5-0-0-7--0-0--0-0-0-0-0-0-7-0-0-0-5-0-0-7-0-0-0--0-0-0------------|

F#|---------------------------------------------------------------------------|
C#|---------------------------------------------------------------------------|
G#|---------------------------------------------------------------------------|
C#|-7-0-0-0-5-0-0-7--0-0--0-0-0-0-0-0-7-0-0-0-0-0-0-0------5--5--5------------|

F#|---------------------------------------------------------------------------|
C#|---------------------------------------------------------------------------|
G#|---------------------------------------------------------------------------|
C#|-7-0-0-0-5-0-0-7--0-0--0-0-0-0-0-0-7-0-0-0-5-0-0-7-0-0-0--0-0-0------------|

F#|---------------------------------------------------------------------------|
C#|---------------------------------------------------------------------------|
G#|---------------------------------------------------------------------------|
C#|-7-0-0-0-5-0-0-7--0-0--0-0-0-0-0-0-7-0-0-0-5---------0--0--0--0~-----------|

(Rest)

F#|---------------------------------------------------------------------------|
C#|---------------------------------------------------------------------------|
G#|---------------------------------5-5-5-5-5-5-5-5-5-5-5-5-5-5-5-5-----------|
C#|-8-8-8-8-8-8-8-8-8-8-8-8-8-8-8-8-------------------------------------------|

F#|---------------------------------------------------------------------------|
C#|---------------------------------------------------------------------------|
G#|---------------------------------3-3-3-3-3-3-3-3~----2~----0~--------------|
C#|-8-8-8-8-8-8-8-8-8-8-8-8-8-8-8-8-------------------------------------------|

F#|---------------------------------------------------------------------------|
C#|---------------------------------------------------------------------------|
G#|---------------------------------------------------------------------------|
C#|-0~-------------------------0~------------------0~-------------------------| x2

F#|---------------------------------------------------------------------------|
C#|---------------------------------------------------------------------------|
G#|---------------------------------5-5-5-5-5-5-5-5-5-5-5-5-5-5-5-5-----------|
C#|-8-8-8-8-8-8-8-8-8-8-8-8-8-8-8-8-------------------------------------------|

F#|---------------------------------------------------------------------------|
C#|---------------------------------------------------------------------------|
G#|---------------------------------3-3-3-3-3-3-3-3~----2~----0~--------------|
C#|-8-8-8-8-8-8-8-8-8-8-8-8-8-8-8-8-------------------------------------------|

Chorus - 01.57 - 02.24

F#|---------------------------------------------------------------------------|
C#|---------------------------------------------------------------------------|
G#|---------------------------------------------------------------------------|
C#|-1-0--0--0-0--0-0---0-0-0-0--0-0-0-0--1-0--0--0-0--0-0--6-6-6--6-6-6-------|

F#|---------------------------------------------------------------------------|
C#|---------------------------------------------------------------------------|
G#|--------------------------------------------------------1-1-1--1-1-1-------|
C#|-1-0--0--0-0--0-0---0-0-0-0--0-0-0-0--1-0--0--0-0--0-0---------------------|

F#|---------------------------------------------------------------------------|
C#|---------------------------------------------------------------------------|
G#|---------------------------------------------------------------------------|
C#|-1-0--0--0-0--0-0---0-0-0-0--0-0-0-0--1-0--0--0-0--0-0--6-6-6--6-6-6-------|

F#|---------------------------------------------------------------------------|
C#|---------------------------------------------------------------------------|
G#|--------------------------------------------------------1-1-1--1-1-1-------|
C#|-1-0--0--0-0--0-0---0-0-0-0--0-0-0-0--1-0--0--0-0--0-0---------------------|

Post-Chorus - 02.24 - End. 

F#|---------------------------------------------------------------------------|
C#|---------------------------------------------------------------------------|
G#|---------------------------------------------------------------------------|
C#|-1-0--0--0-0--0-0---------------------1-0--0--0-0--0-0--6-6-6--6-6-6-------|

F#|---------------------------------------------------------------------------|
C#|---------------------------------------------------------------------------|
G#|--------------------------------------------------------1-1-1--1-1-1-------|
C#|-1-0--0--0-0--0-0---------------------1-0--0--0-0--0-0---------------------|

F#|---------------------------------------------------------------------------|
C#|---------------------------------------------------------------------------|
G#|---------------------------------------------------------------------------|
C#|-1-0--0--0-0--0-0--0-0-0-0-0-0-0-0-0--1-0--0--0-0--0-0--6-6-6--6-6-6-------|

F#|---------------------------------------------------------------------------|
C#|---------------------------------------------------------------------------|
G#|--------------------------------------------------------1-1-1--1-1-1-------|
C#|-1-0--0--0-0--0-0--0-0-0-0-0-0-0-0-0--1-0--0--0-0--0-0---------------0~----|            
Submit corrections

↑ Back to top | Tablatures and chords for acoustic guitar and electric guitar, ukulele, drums are parodies/interpretations of the original songs. You may use it for private study, scholarship, research or language learning purposes only