Home » Y » Young The Giant »

Young The Giant - Something To Believe In Bass

Artists:  A B C D E F G H I J K L M N O P Q R S T U V W X Y Z # 

Something To Believe In Bass

(ver. 1) Click to play this song!
Young The Giant
Tuning : Standart (E,A,D,G)

[Intro]
0:10
Use some kind of distortion with an octaver (down)
G|------------4-6-|----------------|----------------|----------------|----------------|
D|----------------|4-4-4-6-6-6-6---|----------------|------4-4-4-4---|----------------|
A|----------------|--------------6-|6-6-6-6-6-6-6-6-|4-4-4---------6-|6-6-6-6-6-6-6-6-|
E|----------------|----------------|----------------|----------------|----------------|


[Verse]

G|----------------|----------------|----------------|----------------|-------------/8-|
D|--4-4-6-6-6-6---|----------------|------4-4-4-4---|----------------|4-4-4-6-6-6-6---|
A|--------------6-|6-6-6-6-6-6-6-6-|4-4-4---------6-|6-6-6-6-6-6-6-6-|----------------|
E|----------------|----------------|----------------|----------------|----------------|

G|8-8-8-8-8-8-8-8-|----------------|----------------|
D|----------------|------4-4-4-4---|----------------|
A|----------------|4-4-4---------6-|6-6-6-6-6-6-6-6-|
E|----------------|----------------|----------------|


[Pre-Chorus] (no more distortion)

G|-------------/8-|8-8-8-8-8-8-8-8-|----------------|----------------|----------------|
D|--4-4-3-3-3-3---|----------------|------4-4-4-4---|----------------|----------------|
A|----------------|----------------|4-4-4---------6-|6-6-6-6-6-6-6-6-|4-------------6-|
E|----------------|----------------|----------------|----------------|--6-6-4-4-4-4---|

G|----------------|----------------|----------------|
D|----------------|------4-4-4-4---|----------------|
A|6-6-6-6-6-6-6-6-|4-4-4---------6-|6-------------4-|
E|----------------|----------------|----------4-6---|


[Chorus]

G|----------------|----------------|----------------|----------------|----------------|
D|----------------|----------------|----------------|----------------|----------------|
A|6-6-6-4-4-4-----|--------------4-|6-6-6-4-4-4-----|--------------4-|6-6-6-4-4-4-----|
E|----------------|2-2-2-2-2-2-6---|----------------|2-2-2-4-4-4-6---|----------------|

G|----------------|----------------|----------------|----------------|----------------|
D|4-4-4-8---------|----------------|----------------|----------------|4-4-4-4-4-4-----|
A|----------------|----------------|----------------|6-6-6-4-4-4-----|--------------4-|
E|--------6-6-4-4-|2-2-2-2-2-2-2-2-|4-4-4-4-4-4-4-4-|----------------|------------6---|

G|----------------|----------------|
D|----------------|4-4-4-6-6-6-----|
A|6-6-6-4-4-4-----|----------------|
E|----------------|----------------|



[Verse] (distortion)

G|----------------|----------------|----------------|----------------|
D|--4-4-6-6-6-6---|----------------|------4-4-4-4---|----------------|
A|--------------6-|6-6-6-6-6-6-6-6-|4-4-4---------6-|6-6-6-6-6-6-6-6-|
E|----------------|----------------|----------------|----------------|

[Pre-Chorus] (no more distortion)

G|-------------/8-|8-8-8-8-8-8-8-8-|----------------|----------------|----------------|
D|--4-4-3-3-3-3---|----------------|------4-4-4-4---|----------------|----------------|
A|----------------|----------------|4-4-4---------6-|6-6-6-6-6-6-6-6-|4-------------6-|
E|----------------|----------------|----------------|----------------|--6-6-4-4-4-4---|

G|----------------|----------------|----------------|
D|----------------|------4-4-4-4---|----------------|
A|6-6-6-6-6-6-6-6-|4-4-4---------6-|6-------------4-|
E|----------------|----------------|----------4-6---|


[Chorus]

G|----------------|----------------|----------------|----------------|----------------|
D|----------------|----------------|----------------|----------------|----------------|
A|6-6-6-4-4-4-----|--------------4-|6-6-6-4-4-4-----|--------------4-|6-6-6-4-4-4-----|
E|----------------|2-2-2-2-2-2-6---|----------------|2-2-2-4-4-4-6---|----------------|

G|----------------|----------------|----------------|----------------|----------------|
D|4-4-4-----------|----------------|----------------|----------------|----------------|
A|----------------|----------------|----------------|----------------|----------------|
E|------6-6-6-4-4-|2-2-2-2-2-2-2-2-|4-4-4-4-4-4-4-4-|9---------------|4---------------|

G|----------------|----------------|----------------|----------------|----------------|
D|----------------|----------------|----------------|----------------|----------------|
A|----------------|6---4-----------|----------------|----------------|----------------|
E|2-------6-------|--------9---8---|9---------------|4---------------|2---------------|

G|----------------|
D|----------------|
A|6---------------|
E|----------------|


[Interlude] : no bass


[Build up]

G|----------------|----------------|----------------|
D|----------------|----------------|----------------|
A|6-6-6-4-4-4-----|--------------4-|6-6-6-4-4-4-----|
E|----------------|2-2-2-2-2-2-6---|----------------|


[Chorus]

G|----------------|----------------|----------------|----------------|----------------|
D|----------------|4-4-4-4-4-4-----|----------------|----------------|----------------|
A|6-6-6-4-4-4-----|--------------4-|6-6-6-4-4-4-----|--------------4-|6-6-6-4-4-4-----|
E|----------------|------------6---|----------------|2-2-2-4-4-4-6---|----------------|

G|----------------|----------------|----------------|----------------|----------------|
D|4-4-4-----------|----------------|------4-6--464--|----------------|4-4-4-4-4-4-----|
A|----------------|----------------|----------------|6-6-6-4-4-4-----|--------------4-|
E|------6-6-6-4-4-|2-2-2-2-2-2-2-2-|4-4-4-----------|----------------|------------6---|

G|----------------|----------------|----------------||
D|----------------|----------------|----------------||
A|6-6-6-4-4-4-----|--------------4-|6---------------||
E|----------------|2-2-2-4-4-4-6---|----------------||






            
Submit corrections

↑ Back to top | Tablatures and chords for acoustic guitar and electric guitar, ukulele, drums are parodies/interpretations of the original songs. You may use it for private study, scholarship, research or language learning purposes only