» » »

Young The Giant - Nothings Over Bass

Artists:  A B C D E F G H I J K L M N O P Q R S T U V W X Y Z # 

Nothings Over Bass

(ver. 1) Click to play this song!
Young The Giant
 Rating:
4.3/5 (26 votes)
    Nothings Over  lessons Tabs too difficult? Try these video lessons and learn fast
                [Chorus]

0:56
"It's over, nothing's over..."
G|---------------------------------------------------------------------------|
D|------------2-----------------------------2--------------------------------|
A|---5-5-3-5----5-3----------2-----5-5-3-5----5-3----------2-----------------|
E|------------------5-5-3-5----5-3----------------5-5-3-5----5-3-------------|

G|---------------------------------------------------------------------------|
D|------------2-------------------------4------4-------5------5--------------|
A|---5-5-3-5----5-3----------2------2-2---2--2---2-3-3---3--3---3------------|
E|------------------5-5-3-5----5-3-------------------------------------------|

G|---------------------------------------------------------------------------|
D|------------2-----------------------------2--------------------------------|
A|---5-5-3-5----5-3----------2-----5-5-3-5----5-3----------2-----------------|
E|------------------5-5-3-5----5-3----------------5-5-3-5----5-3-------------|

G|---------------------------------------------------------------------------|
D|------------2--------------------------------------------------------------|
A|---5-5-3-5----5-3----------2-----------------------------------------------|
E|------------------5-5-3-5----5-3-------------------------------------------|

[Interlude]

1:37
G|---------------------------------------------------------------------------|
D|-----5-7h9--5---7-----7h9--5---7---5-7h9--5---7-----7h9--5---7-------------|
A|---7----------7-----7--------7---7----------7-----7--------7---------------|
E|------------------5-----------------------------5--------------------------|

G|---------------------------------------------------------------------------|
D|-----5-7h9--5---7-----7h9--5---7---5-7h9--5---7-----7h9--5---7-------------|
A|---7----------7-----7--------7---7----------7-----7--------7---------------|
E|------------------5-----------------------------5--------------------------|

G|---------------------------------------------------------------------------|
D|-----5-7h9--5---7-----4------4-------4------4------------------------------|
A|---7----------7---2-2---2--2---2-2-2---2--2---2----------------------------|
E|---------------------------------------------------------------------------|


[Chorus]

2:01
"It's over, nothing's over..."
G|---------------------------------------------------------------------------|
D|------------2-----------------------------2--------------------------------|
A|---5-5-3-5----5-3----------2-----5-5-3-5----5-3----------2-----------------|
E|------------------5-5-3-5----5-3----------------5-5-3-5----5-3-------------|
                                                                              (x2)
G|---------------------------------------------------------------------------|
D|------------2------------------------4------4-------5-4-2------------------|
A|---5-5-3-5----5-3----------2------2-2---2--2---2-3--------5-3-2------------|
E|------------------5-5-3-5----5-3--------------------------------5-3-5------|

[Interlude]

2:35
G|---------------------------------------------------------------------------|
D|------------2-----------------------------2--------------------------------|
A|---5-5-3-5----5-3----------2-----5-5-3-5----5-3----------2-----------------|
E|------------------5-5-3-5----5-3----------------5-5-3-5----5-5-3-3---------|
                                                                              (x3)
G|---------------------------------------------------------------------------|
D|------------2------------------------4------4-------5-4-2------------------|
A|---5-5-3-5----5-3----------2------2-2---2--2---2-3--------5-3-2------------|
E|------------------5-5-3-5----5-3--------------------------------5-3-5------|

G|---------------------------------------------------------------------------|
D|------------2-----------------------------2--------------------------------|
A|---5-5-3-5----5-3----------2-----5-5-3-5----5-3----------2-----------------|
E|------------------5-5-3-5----5-3----------------5-5-3-5----5-5-3-3---------|

G|---------------------------------------------------------------------------|
D|------------2-------------------------4------4-------5------5-4-2----------|
A|---5-5-3-5----5-3----------2------2-2---2--2---2-3-3---3--3-------5--------|
E|------------------5-5-3-5----5-3-------------------------------------------|

[Outro]

3:45
"It's over, nothing's over..."
G|---------------------------------------------------------------------------|
D|------------2-----------------------------2--------------------------------|
A|---5-5-3-5----5-3----------2-----5-5-3-5----5-3----------2-----------------|
E|------------------5-5-3-5----5-3----------------5-5-3-5----5-3-------------|
                                                                              
G|---------------------------------------------------------------------------|
D|------------2-------------------------4------4-------5------5-4-2----------|
A|---5-5-3-5----5-3----------2------2-2---2--2---2-3-3---3--3-------5--------|
E|------------------5-5-3-5----5-3-------------------------------------------|            
Submit corrections

↑ Back to top | Tablatures and chords for acoustic guitar and electric guitar, ukulele, drums are parodies/interpretations of the original songs. You may use it for private study, scholarship, research or language learning purposes only