» » »

You Me At Six - Wild Ones Tabs

Artists:  A B C D E F G H I J K L M N O P Q R S T U V W X Y Z # 

Wild Ones Tabs

(ver. 1) Click to play this song!
You Me At Six
 Rating:
4.3/5 (23 votes)
    Wild Ones  lessons Tabs too difficult? Try these video lessons and learn fast
                [Intro]
(Guitar 1 - Acoustic)
e|----------|
B|----------|
G|-----2----|
D|-0-0---0--|(x4)
A|----------|
E|----------|

(Drums and Guitar 2 come in.)
e|----------------------------------|
B|----------------------------------|
G|-----2--------2-------------------|
D|-0-0---0--------------0---------0-|(x6)
A|----------4-4---4-----------------|
E|------------------3-3---3---3-3--3|

Note: On last time repeat the 3303
Note: PLay on every verse. Don't play on 'Are we gonna live forever' or the chorus.

(Guitar 2) 
(Electric)
e|--------------------------------------------------------------------------------|
B|-8-8-8-8-8-8-8-8-7-7-7-7-7-7-7-7-10-10-10-10-10-10-10-10-10-10-10-10-10-10-10-10|
G|--------------------------------------------------------------------------------|
D|--------------------------------------------------------------------------------|
A|--------------------------------------------------------------------------------|
E|--------------------------------------------------------------------------------|
Note: Always play with and underneath guitar one.

e|--------------|
B|-------8---8--|
G|-7-7-7---7----|(x8)
D|--------------|
A|--------------|
E|--------------|
Note: Played at the very end, at the 'Are we gonna live forever'.

(Guitar 3) 
(Electric)
e|-----------------------------------------------------------------|
B|---------10-8-10-8---------10-8-10-8------------6-8-6---6-8-6-8--|
G|-----7-7---------------7-7--------------------7------------------|
D|-7-9---------------7-9----------------------5--------------------|
A|----------------------------------------5-7----------------------|
E|-----------------------------------------------------------------|
Note: Played through every 'Are we gonna live forever'.

e|----------------------------------------------------------------------------|
B|-8-8-8-7-7-7-7-7-7-7-7-7-7-7-7-7-7-8-8-8-7-7-7-10-10-10-10-10-10-10-10-10-10|
G|----------------------------------------------------------------------------|(x3)
D|----------------------------------------------------------------------------|
A|----------------------------------------------------------------------------|
E|----------------------------------------------------------------------------|

e|--------------------------------------------------------------------|
B|-8-8-8-7-7-7-7-7-7-7-7-7-7-7-7-7-7-8-8-8-7-7-7-5-5-5-5-5-5-5-5-5-5-3|
G|--------------------------------------------------------------------|
D|--------------------------------------------------------------------|
A|--------------------------------------------------------------------|
E|--------------------------------------------------------------------|
Note: All played through every chorus.

(Guitar 4) 
(Electric) 
(distortion)
e|----------------------------------------------------------------------------|
B|-8-8-8-7-7-7-7-7-7-7-7-7-7-7-7-7-7-8-8-8-7-7-7-10-10-10-10-10-10-10-10-10-10|
G|----------------------------------------------------------------------------|
D|----------------------------------------------------------------------------|
A|----------------------------------------------------------------------------|
E|----------------------------------------------------------------------------|

[Outro]
e|--------------------------------------------------------------------|
B|-8-8-8-7-7-7-7-7-7-7-7-7-7-7-7-7-7-8-8-8-7-7-7-5-5-5-5-5-5-5-5-5-5--|
G|--------------------------------------------------------------------|
D|--------------------------------------------------------------------|
A|--------------------------------------------------------------------|
E|--------------------------------------------------------------------|            
Submit corrections

↑ Back to top | Tablatures and chords for acoustic guitar and electric guitar, ukulele, drums are parodies/interpretations of the original songs. You may use it for private study, scholarship, research or language learning purposes only