» » »

You Me At Six - Jealous Minds Think Alike Bass

Artists:  A B C D E F G H I J K L M N O P Q R S T U V W X Y Z # 

Jealous Minds Think Alike Bass

(ver. 2) Click to play this song!
You Me At Six
 Rating:
4/5 (4 votes)


 Jealous Minds Think Alike lessons Tabs too difficult? Try these video lessons and learn fast
 
                YO,
This is my first tab, so be easy on me okay ;)
pretty sure this is right ;D

INTRO
G|----------------------------------------------|
D|----------------------------------------------|
A|22222222--------------------------------------|
E|---------22222222-33333333-55555555-----------|          x2

VERSE(Don't play untill "but I am not what you are")
G|---------------------------|
D|---------------------------|
A|2~----------2~-------------|
E|------0~----------7~----3~-|

PRE-CHORUS
G|-----------------|
D|-----------------|
A|22---------------|
E|--22-33-55-------|      X4

G|---------------|
D|---------------|
A|7~------7~-----|
E|----3~------5~-|

CHORUS
G|----------------------------------------------|
D|----------------------------------------------|
A|55555555--------------------------------------|
E|---------55555555-77777777-33333333-----------|          X2

INTRO
G|------------------------------------|
D|------------------------------------|
A|22222222----------------------------|
E|---------22222222-33333333-55555555-|

VERSE (play in time with the guitar)
G|-----------------------------------------------|
D|-----------------------------------------------|
A|2222222222222222-7777777777777777--------------|
E|----------------------------------33333333-----|    X2

G|---------------|
D|---------------|
A|7~------7~-----|
E|----3~------5~-|

CHORUS

G|----------------------------------------------|
D|----------------------------------------------|
A|55555555--------------------------------------|
E|---------55555555-77777777-33333333-----------|          X2


G|-----------------------------------|
D|-----------------------------------|
A|5~5--5~5------------55555555-------|
E|---55---55-55555555----------------|      X4


STOP

CHORUS
G|----------------------------------------------|
D|----------------------------------------------|
A|55555555--------------------------------------|
E|---------55555555-77777777-33333333-----------|          X3


OUTRO
G|---|
D|---|
A|5~~|
E|---|
            
Submit corrections



        Jealous Minds Think Alike lessons Hard to play? Try these video lessons and learn fast Jealous Minds Think Alike lessons
        
↑ Back to top | Tablatures and chords for acoustic guitar and electric guitar, ukulele, drums are parodies/interpretations of the original songs. You may use it for private study, scholarship, research or language learning purposes only