» » »

You Am I - What I Dont Know Bout You Tabs

Artists:  A B C D E F G H I J K L M N O P Q R S T U V W X Y Z # 

What I Dont Know Bout You Tabs

(ver. 1) Click to play this song!
You Am I
 Rating:
2/5 (28 votes)

 What I Dont Know Bout You  lessons Tabs too difficult? Try these video lessons and learn fast
 
                VERSE Prog. 1

E|-2-2-3-3-3-3-3-3-|-3-3-3-3-3-3-2-2-|
B|-3-3-3-3-3-3-3-3-|-3-3-3-3-3-3-3-3-|
G|-2-2-0-0-0-0-0-0-|-0-0-0-0-0-0-2-2-| x2
D|-0-0-2-2-2-2-2-2-|-0-0-0-0-2-2-0-0-|
A|-----0-0-2-2-2-2-|-2-2-2-2-0-0-----|
E|---------0-0-0-0-|-3-3-3-3---------|

VERSE Prog. 2

E|-3-3-3-3-2-2-3-3-|-3-3-3-3-2-2-2-2-|
B|-3-3-3-3-3-3-3-3-|-3-3-3-3-3-3-3-3-|
G|-0-0-2-2-2-2-0-0-|-0-0-0-0-2-2-2-2-| x2
D|-2-2-0-0-0-0-0-0-|-0-0-2-2-0-0-0-0-|
A|-0-0-2-2-----2-2-|-2-2-0-0---------|
E|-------------3-3-|-3-3-------------|

PRE CHORUS

E|-3-3-3-3-2-2-3-3-|-3-3-3-3-2-3-4-5-|
B|-3-3-3-3-3-3-3-3-|-3-3-3-3-3-4-5-6-|
G|-0-0-2-2-2-2-0-0-|-0-0-0-0-2-3-4-5-|
D|-2-2-0-0-0-0-0-0-|-0-0-2-2-0-0-0-0-|
A|-0-0-2-2-----2-2-|-2-2-0-0---------|
E|-------------3-3-|-3-3-------------|

CHORUS Prog. 1

E|-3-|-3-|-6-|-3-|-2-|
B|-3-|-3-|-6-|-3-|-3-|
G|-0-|-0-|-0-|-0-|-2-|
D|-2-|-0-|-0-|-2-|-0-|
A|-2-|-2-|-5-|-0-|---|
E|-0-|-3-|-6-|---|---|

          
CHORUS Prog. 2

E|-3-|-3-|-6-|-3-|-3-|-3-|-6-|-3-|-2-|
B|-3-|-3-|-6-|-3-|-3-|-3-|-6-|-3-|-3-|
G|-0-|-0-|-0-|-0-|-0-|-0-|-0-|-0-|-2-|
D|-2-|-0-|-0-|-2-|-2-|-0-|-0-|-2-|-0-|
A|-2-|-2-|-5-|-0-|-2-|-2-|-5-|-0-|---|
E|-0-|-3-|-6-|---|-0-|-3-|-6-|---|---|

SOLO (RELATIVE TO CAPO)

D            A7sus4    Em7          
    P P
E|-----------------------------------------------
B|-----------------------------------------------
G|-----------------------------------------------
D|-9-7-5--4--5--4--2--0----0--2--4--5--7--5--4--5
A|-----------------------4-----------------------
E|-----------------------------------------------
G      A7sus4  D

  S      S       S
-----3------5------------10
-----3------5--------10----
2-4----4-6-----9-11--------
---------------------------
---------------------------
---------------------------
  D              A7sus4  Em7

   S     H   P           S      H   P
--------------------------------------------
------10-12-10---------------10-12-10-------
9-11-------------11----9-11--------------11-
--------------------------------------------
--------------------------------------------
--------------------------------------------

    G           A7sus4             D
    S     H               BU  BD
---------------10-----12-(14)-12--10
-------10-12-----12-----------------
--9-11------------------------------
------------------------------------
------------------------------------
------------------------------------
CODA
2------0-2-3-2------0-2-3-2------3--------2
3------3-3-3-3------3-3-3-3------3--------3
2------2-2-2-2------2-2-2-2------0--------2
0------0-0-0-0------0-0-0-0------0--------0
---------------------------------2---------
---------------------------------3--2--0---



VERSE Prog. 1

This whole day was useless
Next one's gonna be worse
Cos I'm wearing this badge of fortune like
A criminals wears a curse

VERSE Prog. 2

I want to chase that rabbit right off the rails
And rip this metal keeping my mouth in check
But I need that muzzle like a razor and a stubble
Cuttin' all this history from my neck

VERSE Prog. 1

Do you remember the gear I first saw you in
Eating mexican in '92?
In between your folks and a birthday toast
It was black from your fringe to your shoes


VERSE Prog. 2

I'm picking apples out of paintings
And making record covers in the sky
I missed my boat sitting here imagining
Your face when you cry

CHORUS Prog. 1

Don't be cruel, come on be sugar in my tooth
I think I like what I don't know about you

VERSE Prog. 1

This whole day threw up some tickets
None I'd ever choose
The sky's so heavy it hangs like a beer gut
Spilling stuff on my shoes

VERSE Prog. 2

Don't get me wrong, I aint complaining
I still got my legs like an old Christmas tree

PRE CHORUS

But if I got faith why am I so scared
Everybody's dying on me

CHORUS Prog. 2

Don't be cruel, come on be sugar in my tooth
I think I like what I don't know about you
Don't be cruel, come on be champagne in my shoe
I think I like what I don't know about you

SOLO

VERSE Prog. 2

There's a fish and chips stall down the south coast ready
I can show you what I'm worth
So set me up a bottle and salt and vinegar
If you get there first

PRE CHORUS

So set 'em, if you get there first

CHORUS Prog. 2

Don't be cruel, come on be sugar in my tooth
I think I like what I don't know about you
Don't be cruel, come on be champagne in my shoe
I think I like what I don't know about you
            
Submit corrections


        What I Dont Know Bout You  lessons Hard to play? Try these video lessons and learn fast What I Dont Know Bout You  lessons
        
↑ Back to top | Tablatures and chords for acoustic guitar and electric guitar, ukulele, drums are parodies/interpretations of the original songs. You may use it for private study, scholarship, research or language learning purposes only