» » »

You Am I - She Digs Her Tabs

Artists:  A B C D E F G H I J K L M N O P Q R S T U V W X Y Z # 

She Digs Her Tabs

(ver. 1) Click to play this song!
You Am I
 Rating:
4/5 (4 votes)

 She Digs Her  lessons Tabs too difficult? Try these video lessons and learn fast
 
                Capo: 3RD Fret 

Tuning: EADGAD

Main riff
   
D|-0-0-0-0-|-0-0-0-0-|--0-0-0-0-|-0-0-0-0-|
A|-0-0-0-0-|-0-0-0-0-|--0-0-0-0-|-0-0-0-0-|
G|-0-0-0-0-|-0-0-0-0-|--0-0-0-0-|-0-0-0-0-|
D|-0-0-0-0-|-2-2-2-0-|--0-0-0-0-|-2-2-2-2-|
A|-2-2-2-0-|-2-2-2-2-|-/4-4-4-2-|-3-3-3-3-|
E|-3-3-3-2-|-0-0-0-3-|-/5-5-5-3-|---------|

Chorus
D|-0-|-0-|-0-|-0-|
A|-0-|-0-|-0-|-0-|
G|-0-|-0-|-0-|-0-|
D|-2-|-2-|-2-|-2-|
A|-0-|-3-|-0-|-3-|
E|---|---|---|---|

?..and the Big Finish

D|-0-|-0-|-0-|-0-|-0-|-0-0-|
A|-0-|-0-|-0-|-0-|-0-|-0-0-|
G|-0-|-3-|-0-|-0-|-0-|-0-0-|
D|-2-|-1-|-0-|-0-|-2-|-0-0-|
A|-3-|-3-|-2-|-3-|-2-|-2/4-|

Verse 1
Your eyes hit a gilded window
When the Housewives Journal, started closing every door
The wind's so strong and you decided
That you just don't want to be carried with it anymore

Verse 2
"Oh my God" the neighbours
Just can't put a word to it never seen to write or call
Greetings to the sister
As you're strutting through your suburb watching ladies trip and fall

Chorus
She came when he left, never thought it was a big decision
Gave up on lives that revolve around car ignition
Hey do you ever get the feeling everything is working out okay?

Verse 3
Sunday afternoon sure used to sting until
The drinks kicked in at ten
But now you've joined a collective
Surely nothing ordinary kicking up a storm again

Verse 4
"Oh my God" the neighbours
Just can't put a word to it never seen to write or call
Greetings to the sister
As you're strutting through your suburb watching ladies trip and fall

Chorus 
She came when he left, never thought it was a big decision
Gave up on lives that revolve around beer and fishing
Hey did you ever get the feeling everything is working out okay?
            
Submit corrections


        She Digs Her  lessons Hard to play? Try these video lessons and learn fast She Digs Her  lessons
        
↑ Back to top | Tablatures and chords for acoustic guitar and electric guitar, ukulele, drums are parodies/interpretations of the original songs. You may use it for private study, scholarship, research or language learning purposes only