» » »

You Am I - Minor Bird Tabs

Artists:  A B C D E F G H I J K L M N O P Q R S T U V W X Y Z # 

Minor Bird Tabs

(ver. 1) Click to play this song!
You Am I
 Rating:
4/5 (4 votes)

 Minor Bird  lessons Tabs too difficult? Try these video lessons and learn fast
 
                Intro:
-------------------------------------------------|
-------------------------------------------------|
--9-9-9-9--8-8-8-8--7-7-7-7--9-------------------|
--9-9-9-9--8-8-8-8--7-7-7-7--9-------------------|
--9-9-9-9--8-8-8-8--7-7-7-7--9-------------------|
-------------------------------------------------|
                               (let ring)
(DRUMS ENTER)

BREAK:
-------------------------------------------------|
-------------------------------------------------|
--4-4-4-4--4-4-4-4--4-4-4-4--4-4-4-4-------------|
--6-6-6-6--5-5-5-5--4-4-4-4--4-4-4-4-------------|
--4-4-4-4--4-4-4-4--4-4-4-4--4-4-4-4-------------|
-----------------------------4h6-4h6-------------|

 x3 then:
-------------------------|
-------------------------|
-0-0---1-1---2-2---3-3---|
-0-0---1-1---2-2---3-3---|
-0-0---1-1---2-2---3-3---|
-------------------------|


VERSE:
-------------------------------------------------|
-------------------------------------------------|
--4-4-4-4--4-4-4-4--4-4-4-4--4-4-4-4-------------|
--6-6-6-6--5-5-5-5--4-4-4-4--4-4-4-4-------------|
--4-4-4-4--4-4-4-4--4-4-4-4--4-4-4-4-------------|
-----------------------------4h6-4h6-------------|

x4
At my nan's I wasn't thinking
Over boiled beans and chicken
Something cool fell in my juice cup
So that I could lie and make stuff up
Is that?

CHORUS:
-----------------------------------------------|
---------8-7-7------------------------5-4------|
---7-7-7-7-7-7-----7---6---5---4----4-4-4------|
---7-7-7-7-7-7-----7---6---5---4----4-4-4------|
---7-7-7-7-7-7-----7---6---5---4----4-4-4------|
-----------------------------------------------|
  why?         My future's so bright...

--------------------------------------------------------|
---------------------7-8-7------------------------------|
----4---5---6---7----7-7-7--7-7-7-7-7-7-7-7-4-4-4-4-----|
----4---5---6---7----7-7-7--7-7-7-7-7-7-7-7-4-4-4-4-----|
----4---5---6---7----7-7-7--7-7-7-7-7-7-7-7-4-4-4-4-----|
--------------------------------------------------------|
  strap in and go... oh, oh, back yard rock show


-------------------------------------------|
-------------------------------------------|
---0-0-0-0-0-0-0-0--2-2-2-2-2-2-2-2-2-2-2--|
---0-0-0-0-0-0-0-0--2-2-2-2-2-2-2-2-2-2-2--|
---0-0-0-0-0-0-0-0--2-2-2-2-2-2-2-2-2-2-2--|
-------------------------------------------|
   aaaaaaaaaah...... aaaaaaaaaaaah


BREAK

VERSE 2: (as before)
When all city folk got southern
Paint my face up with my brother
Uncle choked and started shaking
Over whiskey, eggs and bacon


CHORUS (as before):
Is that why
Our nights look so bright?
So strap in and go ohoo
Backyard rock show.

BREAK with OUTRO:
-----------------------------|
-----------------------------|
-0-0---1-1---2-2---3-3---4-4-|
-0-0---1-1---2-2---3-3---4-4-|
-0-0---1-1---2-2---3-3---4-4-|
-----------------------------|            
Submit corrections


        Minor Bird  lessons Hard to play? Try these video lessons and learn fast Minor Bird  lessons
        
↑ Back to top | Tablatures and chords for acoustic guitar and electric guitar, ukulele, drums are parodies/interpretations of the original songs. You may use it for private study, scholarship, research or language learning purposes only