» » »

You Am I - Kenthe Mother Natures Son Tabs

Artists:  A B C D E F G H I J K L M N O P Q R S T U V W X Y Z # 

Kenthe Mother Natures Son Tabs

(ver. 1) Click to play this song!
You Am I
 Rating:
4/5 (4 votes)

 Kenthe Mother Natures Son  lessons Tabs too difficult? Try these video lessons and learn fast
 
                Tuning: DADGBe

Capo: 2nd Fret

Intro:
e|-0-
B|-0-
G|-2-(let ring)
D|-2-
A|-2-
D|-2-

VERSE
   Em      A         D
e|----------------------------------------|
B|---------2---------3-3----3—-3----------|
G|---------2--X------2-0h2--2—-2----------|
D|-2--X—0--2--X—-0—--0-0----0—-0----------|
A|-2—-X—0--0--X—-0—--0-0----0—-0----------|
D|-2--X-----------------------------------|

CHORUS
   A       F          D
e|-------------------------------------------|
B|-2-------0----------3-3----3—-3------------|
G|-2--X-0--0--X-0-----2-0/2--2—-2------------|
D|-2--X—0—-3--X-0—----0-0----0—-0------------|
A|-0--X-0--3--X—0—----0-0----0—-0------------|
D|---------3---------------------------------|

Repeat as seen fit

(Then you repeat this 8 times)
   A              F
e|------------------------|
B|-2--3-3-3-2-----6-6-5-5-|
G|-2--2-2-2-2--0--5-5-5-5-|
D|-2--2-2-2-2--0--5-5-5-5-|
A|-0--0-0-0-0--0--0-0-0-0-|
D|------------------------|

You've lived on beans and rice
And fell for Jesus Christ
And if your pants are nice
Mother nature's son,
Never made sense until you begun
To play the kids for fun

Maybe start a TV show
A service in day-glow
Watch your ethics grow

Mother nature's kid,
Just keep the money hid
As if you never did sell

Mother nature's son
Never made sense until you begun
To play the kids for fun

You've never tasted hell
'cause Judas signed you well
And if the story sells

Mother nature's kid,
Just keep the money hid
As if you never did sell

Mother nature's son
Never made sense until you begun
To play the kids for fun            
Submit corrections


        Kenthe Mother Natures Son  lessons Hard to play? Try these video lessons and learn fast Kenthe Mother Natures Son  lessons
        
↑ Back to top | Tablatures and chords for acoustic guitar and electric guitar, ukulele, drums are parodies/interpretations of the original songs. You may use it for private study, scholarship, research or language learning purposes only