» » »

You Am I - If We Cant Get It Together Tabs

Artists:  A B C D E F G H I J K L M N O P Q R S T U V W X Y Z # 

If We Cant Get It Together Tabs

(ver. 1) Click to play this song!
You Am I
 Rating:
4.3/5 (19 votes)

 If We Cant Get It Together  lessons Tabs too difficult? Try these video lessons and learn fast
 
                Capo 1st fret

    G                     Bm                            G
To get up the bond for an inner west flat he'd work for anybody if he 
       Bm
wasn't working for her dad.
     Am                  Esus4   E               Am            
She' practicing saying I do or I will 'cause she don't know how to tell 
               Esus4     E
him that she's going off the pill.
    G                                   Bm                      
Her curtains are for certain that he'll talk about her ass  
        G                          Bm
but she clings to his photo like a piece of broken glass.
   Am                    Esus4   E
We can't get it together today.
      Am                             Esus4            E
She's looking for his heart while he stares the other way.
     F                                 
He's dad is a nut, he's ex-girl is a sl*t.
    F
But he'll be yours forever if you just get it together.
      C                                                                  
If we can't get it together, if we can't get it together, 
      Cm
is it ever gonna be just you and me?
        G                     Bm                             
So they met on Tuesday at the town hall steps to get an 
G                        Bm
eight by ten photo and a wedding date set.
   Am                       Esus4 E               Am
We might as well do it next week     'cause we've met everybody that 
      Esus4      E
we're ever gonna meet.
     F                            
He's dad is a nut, he's ex-girl is a sl*t
    F
But he'll be yours forever if you just get it together.

      C                                                                  
If we can't get it together, if we can't get it together,
       Cm                             G
 is it ever gonna Be just you and me?
Em              Em(maj7)
Four seventy to Circular Quay.
   Em7                           Em(add6)
A present in your pocket for the TAB
      Am7                                                                 
If we can't get it together, if we can't get it together 
      D                                      
is it ever gonna be just you and me?

SOLO (relative to capo)

             H
--------------------------------------------
-----------------------------0----0---0----0
--------------------0-----0--4----4---2----0
--------------0--2-----2--------------------
----------0-2-------------------------------
-3------------------------------------------

(x2)

0--0---0--0--0---0---0--0---0
5--5---5--3--0---7---7--8---8
-----------------------------
-----------------------------
-----------------------------
-----------------------------

(x2)

         H                      BU               BD
----------------------------------------------------------
-------------------------------------15---------------------
------------12--14--12---14----(16)-------(16)---14---12------
14---12-14----------------------------------------------14
----------------------------------------------------------
----------------------------------------------------------

(x3)

---8---------8---------10--11--10--8----3
------8---------8-----------------------3
8--------8--------8---------------------0
----------------------------------------0
----------------------------------------2
----------------------------------------3

Em                     Em(maj7)                               
Would you settle for a mobile home a 
Em7                     Em(add6)
good record store and a public phone
      Am7                                                          
If we can't get it together, if we can't get it together

D  D  D  D     D 

            
Submit corrections


        If We Cant Get It Together  lessons Hard to play? Try these video lessons and learn fast If We Cant Get It Together  lessons
        
↑ Back to top | Tablatures and chords for acoustic guitar and electric guitar, ukulele, drums are parodies/interpretations of the original songs. You may use it for private study, scholarship, research or language learning purposes only