» » »

You Am I - Everyones To Blame Tabs

Artists:  A B C D E F G H I J K L M N O P Q R S T U V W X Y Z # 

Everyones To Blame Tabs

(ver. 1) Click to play this song!
You Am I
 Rating:
4.2/5 (22 votes)

 Everyones To Blame  lessons Tabs too difficult? Try these video lessons and learn fast
 
                Dropped-G Tuning

Capo 2

      G      Csus2    Dsus2        Em      Esus2   Asus2
e-----x-----x---------x----------x-------x-------0---------------------|
b-----3-----3---------x----------x-------x-------0---------------------|
g-----0-----0---------9----------12------11------4---------------------|
d-----0-----x---------7----------9-------9-------2---------------------|
g-----x-----5---------7----------9-------9-------2---------------------|
e—----3-----x---------x----------x-------x-------x-------------------|

INTRO
e---------------------------------------------------------------------|
b---------------------------------------------------------------------|
g-12--9-11-12--11-12-x-9----9-7----7-9-9-x-12--11-12-9-9----9-7--7-9--|
d-9---9-9--9---9--9--x-7--7-7-7--7-7-7-7-x-9------9--9-7--7-7-7--7-7--|
g-9---9-9--9---9--9--x-7--7-7-7--7-7-7-7-x-9------9--9-7--7-7-7--7-7--|
e---------------------------------------------------------------------|

e--------------------------------------------------------------------|
b--------------------------------------------------------------------|
g-12--9-11--11-9-x-9----9-7----7-9-9-x-12--11-11-12-x-9--9-9-9-9-9-9-|
d-9---9-9---9--9-x-7--7-7-7--7-7-7-7-x-9---9--9--9--x-7--7-7-7-7-7-7-|
g-9---9-9---9--9-x-7--7-7-7--7-7-7-7-x-9---9--9--9--x-7--7-7-7-7-7-7-|
e--------------------------------------------------------------------|

Rhy. Fig. 1  x2
e----------------------------------0--------0--0-0-0-0-0-0-0---------|
b---------3p0---0--0---------------0--0-0-0-0--0-0-0-0-0-0-0---------|
g---------0-----0--0-----0-4-4-0-4-4--4-4-4-4--4-4-4-4-4-4-4---------|
d---------x-----x--x-----0-4-4-0-2-2--2-2-2-2--2-2-2-2-2-2-2---------|
g--4--4-4-4---4-4--4-4-4-0-4-4-0-2-2--2-2-2-2--2-2-2-2-2-2-2---------|
e--0--0-0-0---0-0--0-0-0---------------------------------------------|

e------------------------------------0--------0--0-0-0-0-0-0-0-------|
b---------3p0---0--0-----------------0--0-0-0-0--0-0-0-0-0-0-0-------|
g---------0-----0--0-------0-0-0-0h4-4--4-4-4-4--4-4-4-4-4-4-4-------|
d---------x-----x--x-------0-0-0-0h2-2--2-2-2-2--2-2-2-2-2-2-2-------|
g--4--4-4-4---4-4--4-4-4---x-x-x-0h2-2--2-2-2-2--2-2-2-2-2-2-2-------|
e--0--0-0-0---0-0--0-0-0-0-3-3-3-------------------------------------|

G                                        Csus2
Lets take on the world and just forget that you feel a girl
                 Dsus2                    Asus2
Once you're away, everyone's still the same
G                                                    Csus2
If I could rip at your shirt and just to see if it'll hurt
                     Dsus2                                              Asus2
The day's a golden day, when you've got someone to blame

Rhy. Fig. 1 x 2

G
Could you feel so much in a bust
                     Csus2
You sure there's nothing you can trust
                 Dsus2                      Asus2
Once you're away everyone stabs the same
G                                                       Csus2
I sleep forever on your breast treat everyday it's like a test
                     Dsus2                          Asus2
But you'll still say everyone's to blame

e--------------------------------------------------------------------|
b--------------------------------------------------------------------|
g-12----12-x-9-----9-----9-x-12-----12-----12-x-9-----9-7-----9-9----|
d-9-----9--x-7---7-7---7-7-x-9----9-9----9-9--x-7---7-7-7---7-7-7----|
g-9-----9--x-7---7-7---7-7-x-9----9-9----9-9--x-7---7-7-7---7-7-7----|
e--------------------------------------------------------------------|


e---------------------------------------------------------------------|
b---------------------------------------------------------------------|
g-12--9-11--11-12-x-9----9-7--9-9-x-12----11---11-12-x-9----9-9-9-9-9-|
d-9---9-9---9--9--x-7--7-7-7--7-7-x-9---9-9--9-9--9--x-7--7-7-7-7-7-7-|
g-9---9-9---9--9--x-7--7-7-7--7-7-x-9---9-9--9-9--9--x-7--7-7-7-7-7-7-|
e---------------------------------------------------------------------|

Em - Dsus2 - Em - Dsus2 - Em - Esus2 - Dsus2 - Em - Esus2 - Dsus2

G                                            Csus2
Lets take on the world and just forget that you feel a girl
                 Dsus2                          Asus2
Once you're away, everyone's still the same
G                                                    Csus2
If I could rip up your shirt and just to see if it'll hurt
                    Dsus2                                               Asus2
The day's a golden day, when you've got someone to blame

G                        Csus2              Dsus2
Everyone's to blame, everyone's to blame
                         Asus2              G
Everyone's to blame, everyone's to blame
                         Csus2              Dsus2                        Asus2
Everyone's to blame, everyone's to blame, everyone's to blame

  G                              Csus2
e--------------------------------------------------------------------|
b--------------------------------------------------------------------|
g--------4b-0-0-4b-0-0-0-0-0-0-0-0-0-0-2/4-4-4-4-4-2-0-0-------------|
d--------------------------------------------------------------------|
a--------------------------------------------------------------------|
e--------------------------------------------------------------------|
  Dsus2                             Asus2
e--------------------------------------------------------------------|
b--------------------------------------------------------------------|
g-0h2--2--2-2-2-2-2-2-2-2-4-2-2p0------------------------------------|
d---------------------------------2--2--2-2-2-2-2-2-2-2-2-2-2--------|
a--------------------------------------------------------------------|
e--------------------------------------------------------------------|
  G                              Csus2
e--------------------------------------------------------------------|
b--------------------------------------------------------------------|
g--------4b-0-0-4b-0-0-0-0-0-0-0-0-0-0-2/4-4-4-4-4-2-0-0-------------|
d--------------------------------------------------------------------|
a--------------------------------------------------------------------|
e--------------------------------------------------------------------|
  Dsus2                           Asus2
e------------------7-----7------7-----7----7----7----10---10---10----|
b-------------------10b12-10b12-10b12-(12)-(12)-(12)-(12)-(12)-12r10-|
g-0h2-2-2-2-2-2-2-2--------------------------------------------------|
d--------------------------------------------------------------------|
a--------------------------------------------------------------------|
e--------------------------------------------------------------------|

e----------------------------------0--------0--0-0-0-0-0-0-0---------|
b---------3p0---0--0---------------0--0-0-0-0--0-0-0-0-0-0-0---------|
g---------0-----0--0-----0-4-4-0-4-4--4-4-4-4--4-4-4-4-4-4-4---------|
d---------x-----x--x-----0-4-4-0-2-2--2-2-2-2--2-2-2-2-2-2-2---------|
g--4--4-4-4---4-4--4-4-4-0-4-4-0-2-2--2-2-2-2--2-2-2-2-2-2-2---------|
e--0--0-0-0---0-0--0-0-0---------------------------------------------|

e-----------------------------------0--------------------------------|
b---------3p0---0--0----------------0--------------------------------|
g---------0-----0--0-------0-0-0-0--4---------------x\---------------|
d---------x-----x--x-------0-0-0-0--2---------------x\---------------|
g--4--4-4-4---4-4--4-4-4---x-x-x-0--2---------------x\---------------|
e--0--0-0-0---0-0--0-0-0-0-3-3-3-------------------------------------|            
Submit corrections


        Everyones To Blame  lessons Hard to play? Try these video lessons and learn fast Everyones To Blame  lessons
        
↑ Back to top | Tablatures and chords for acoustic guitar and electric guitar, ukulele, drums are parodies/interpretations of the original songs. You may use it for private study, scholarship, research or language learning purposes only