» » »

You Am I - Aint Gone And Open Tabs

Artists:  A B C D E F G H I J K L M N O P Q R S T U V W X Y Z # 

Aint Gone And Open Tabs

(ver. 1) Click to play this song!
You Am I
 Rating:
4/5 (4 votes)

 Aint Gone And Open  lessons Tabs too difficult? Try these video lessons and learn fast
 
                
Intro
    F#
E|---------------------------------------------------|
B|---------------------------------------------------|
G|-------------------------------4-------------------|
D|--4--4-4--4--4-------------------------------------|
A|--4--4-4--6--6--------------3----------------------|
D|--4--4-4--4--4-----------4-------------------------|

Main riff/verses
   F#               D#                B
E|---------------------------------|-------------0-----0-----|
B|---------------------------------|---------------0-----0---|
G|---------------------------------|--4--4--4-4------4-----4-|
D|-4--4-4--4--4-----1----1---1--1--|--4--4--4-4--------------|
A|-4--4-4--6--4-----1----1---3--1--|--2--2--2-2--------------|
D|-4--4-4--4--4-----1----1---1--1--|--x----------------------|

   G#            A#    B
E|-------------------|------------------------------|
B|-------------------|------------------------------|
G|-------------------|------------------------------|
D|-6--------6-6--8--8|/9----------------------------|
A|-6--------6-6--8--8|/9----------------------------|
D|-6--------6-6--8--8|/9----------------------------|

Chorus
    F#    D      B         Bm7
E|-----------|----------|--2------------------------|
B|-----------|---0------|--3------------------------|
G|.----------|---4-----.|--2------------------------|
D|.-4-----0--|---4-----.|--4------------------------|
A|--4-----0--|---2------|--2------------------------|
D|--4-----0--|----------|---------------------------|

Mellotron end bit

E|------7----------------|--------------------------|
B|-7---------------------|--------------------------|
G|---------7----9--8-----|--------------------------|
D|---------------------9-|-0-----2--1---------------|
A|-----------------------|----------------2---------|
D|-----------------------|--------------------------|

Verse

Wide eyes your wife
Wide enough to shoot
But if you ain't got the strength to fire
A desire

Chorus

And I ain't gonna open my eyes anymore
Ain't gonna open my eyes anymore

Verse

Pale faces burn
You would've thought by now we'd learn
But every fool still waits their turn in
Rotisseries burning

Chorus

And I ain't gonna open my eyes anymore
I ain't gonna open my eyes anymore

Haaa ahhhhh

Outro

And I ain't gonna open my eyes anymore
I ain't gonna open my eyes anymore
Ain't gonna open my eyes anymore
I ain't gonna open my eyes
Ain't gonna open my eyes anymore
I ain't gonna open my eyes anymore
Ain't gonna open my eyes anymore
I ain't gonna open my eyes            
Submit corrections


        Aint Gone And Open  lessons Hard to play? Try these video lessons and learn fast Aint Gone And Open  lessons
        
↑ Back to top | Tablatures and chords for acoustic guitar and electric guitar, ukulele, drums are parodies/interpretations of the original songs. You may use it for private study, scholarship, research or language learning purposes only