» » »

You Am I - Adams Ribs Tabs

Artists:  A B C D E F G H I J K L M N O P Q R S T U V W X Y Z # 

Adams Ribs Tabs

(ver. 1) Click to play this song!
You Am I
 Rating:
3.2/5 (25 votes)

 Adams Ribs  lessons Tabs too difficult? Try these video lessons and learn fast
 
                (Dropped-d, capo 2)

Intro
E|-----------------------------------------|
B|-----------------------------------------|
G|----------------------------2-2--2--0----|
D|-2-2-2-2-1-1-1-1-0-0-0-0--0-2-2--2--0----|
A|-2-2-2-2-2-2-2-2-2-2-2-2--0-0-0--0-------|
D|-2-2-2-2-1-1-1-1-0-0-0-0-----------------|

Verse riff

E|------------------------|
B|-3---3------------------|
G|-2---2---0--2--2--0-----|   x nine million
D|-2---2---0--2--2--0-----|
A|-2---2---0--0--0--0-----|
D|-2---2------------------|

Bridge (as long as we don't...)

E|-------------------|
B|-3-3-3-3-3-3-3-3-3-|
G|-2-2-2-2-2-2-2-2-2-| back to verse riff
D|-0-0-0-0-0-0-0-0-0-|
A|-0-0-0-0-0-0-0-0-0-|
D|-0-0-0-0-0-0-0-0-0-|

Chorus? (as long as we're emaciated...)

E|---------------------------------|
B|-3-3-3-3-3-3-3-3-4-4-4-4-4-4-4-4-|
G|-2-2-2-2-2-2-2-2-4-4-4-4-4-4-4-4-|
D|-0-0-0-0-0-0-0-0-4-4-4-4-4-4-4-4-| back to verse riff
A|-0-0-0-0-0-0-0-0-2-2-2-2-2-2-2-2-|
D|-0-0-0-0-0-0-0-0-----------------|

Interlude

E|--0--0-0-0-0-0-0----0--0-0-0--0--0-0-0-0--0-0-0-0-0-0-----|
B|--0--0-0-0-0-0-0----0--0-0-0--3--3-2-2-3--3-2-2-3-2-2-----|
G|--1--2-2-1-x-x-4--4-3--3-3-3--0--0-0-0-0--0-0-0-0-0-0-0---|    x2
D|--0--0-0-0-x-x-4--4-4--4-4-4--2--2-2-2-2--2-2-2-2-2-2-0---|
A|--2--2-2-2-x-x-4--4-4--4-4-4--0--0-0-0-0--0-0-0-0-0-0-0---|
D|----------------------------------------------------------|

E|----------------------------------0-------------------------|
B|----------------------0-----------0h1--0--0--0--0---x~~~~---|
G|----------------------2-----------2----2--2--1--0---x~~~~---|
D|--2-------------------2-----------2-----------------x~~~~---|
A|--2-------------------0-----------0-------------------------|
D|--2---^----^----^-------------------------------------------|

back to verse riff x8

End section (make me grow up...)
E|--0--0-0-0-0-0-0----0--0-0-0--0--0-0-0-0--0-0-0-0-0-0-----|
B|--0--0-0-0-0-0-0----0--0-0-0--3--3-2-2-3--3-2-2-3-2-2-----|
G|--1--2-2-1-x-x-4--4-3--3-3-3--0--0-0-0-0--0-0-0-0-0-0-0---|    x8
D|--0--0-0-0-x-x-4--4-4--4-4-4--2--2-2-2-2--2-2-2-2-2-2-0---|
A|--2--2-2-2-x-x-4--4-4--4-4-4--0--0-0-0-0--0-0-0-0-0-0-0---|
D|----------------------------------------------------------|

E|--------------------------------------|
B|--------------------------------------|
G|--------------------------------------|                x6
D|-2-2-2-2/4-4-4-4-4/7-7-7-7-7-7-7-7----|
A|-2-2-2-2/4-4-4-4-4/7-7-7-7-7-7-7-7----|
D|-2-2-2-2/4-4-4-4-4/7-7-7-7-7-7-7-7----|

E|--------------------------------------------------------------------|
B|---------------------------------7-7-7-7-7-7-7-7-10-10-10-10-10-10--|
G|---------------------------------7-7-7-7-7-7-7-7-9--9--9--9--9--9---|
D|-7-7-7-7-7-7-7-7-7-7-7-7-7-7-7-7-7-7-7-7-7-7-7-7-7--7--7--7--7--7---|
A|-7-7-7-7-7-7-7-7-7-7-7-7-7-7-7-7-7-7-7-7-7-7-7-7-7--7--7--7--7--7---|
D|-7-7-7-7-7-7-7-7-7-7-7-7-7-7-7-7-7-7-7-7-7-7-7-7-7--7--7--7--7--7---|

E|--------------------------------------------------------------------|
B|-14-14-14-14-14-14-14-14-14-14-14-14-14-14-14-14----14--------------|
G|-14-14-14-14-14-14-14-14-14-14-14-14-14-14-14-14----14--------------|
D|-14-14-14-14-14-14-14-14-14-14-14-14-14-14-14-14----14--------------|
A|-0--0--0--0--0--0--0--0--0--0--0--0--0--0--0--0-----0---------------|
D|-0--0--0--0--0--0--0--0--0--0--0--0--0--0--0--0-----0---------------|

E|-------------------------------|
B|-------------------------------|
G|---------2-2-------------------|     to finish
D|-2--2--0-2-2-0--2-\------------|
A|-2--2--0-0-0-0--2-\------------|
E|-2--2-----------2-\------------|            
Submit corrections


        Adams Ribs  lessons Hard to play? Try these video lessons and learn fast Adams Ribs  lessons
        
↑ Back to top | Tablatures and chords for acoustic guitar and electric guitar, ukulele, drums are parodies/interpretations of the original songs. You may use it for private study, scholarship, research or language learning purposes only