» » »

Yeng Constantino - Unat Huling Pag-Ibig Tabs

Artists:  A B C D E F G H I J K L M N O P Q R S T U V W X Y Z # 

Unat Huling Pag-Ibig Tabs

(ver. 1) Click to play this song!
Yeng Constantino
 Rating:
2.8/5 (28 votes)

 Unat Huling Pag-Ibig  lessons Tabs too difficult? Try these video lessons and learn fast
 
                Capo on 2nd Fret

Intro:  C-FM7-G-C (2x)

Verse 1

E|-----------0-----------------------------|
B|-----1--3--1--1-----3--------1--1--------|
G|--0--------2-----2--------------------0--|
D|-----------3--------------0--------2-----|
A|-----------------------2--------3--------|
E|--------------------3--------------------|
         FM7-G    C 
 Ikaw ang una't huling


E|--------0--0--------0--------|
B|--1--3-----1--3--1-----------|
G|-----------2--------------0--|
D|-----------3-----------2-----|
A|--------------------3--------|
E|--------------3--------------|
          FM7  G     C
 Pag-ibig ng   buhay ko


E|-----0--3--3--------1--------0--0--------|
B|--1--------------------------------------|
G|--------------------------------------0--|
D|-----------------2--------3--------2-----|
A|--------------2--------3--------3--------|
E|-----------0--------1--------------------|
           Em    F     C
 Kay tagal mang naghintay,


E|-----------0--0--0--1--------------------1--------------0--|
B|-----1--3-----1--------3--------0--3--------1--------1-----|
G|--0-----------2-----------------------2-----------0--------|
D|--------------3--------------0-----------------2-----------|
A|--------------------------2-----------------3--------------|
E|-----------------------3-----------1-----------------------|
            FM7  G          F C            
 Nandito ka na aking habang-buhay


Refrain:

E|--------------------------3--|
B|--0--1--3--0--1--3--0--1--1--|
G|--------------------------0--|
D|--------------------2--------|
A|-----------2--------3--------|
E|--1--------3-----------------|
  F       G         C
 Sinlinaw ng langit na bughaw,

 
E|--------------------5--3-----3--|
B|--0--1--3--0--1--1--------7--5--|
G|--------------------------------|
D|--------------------------------|
A|-----------2--------3-----------|
E|--1--------3--------------------|
F           G     C 
 Hanggang sa dulo ako at ikaw


E|-----------------------------------1--|
B|--5--3--3--1-----1--1--3-----1-----1--|
G|--------------2--2--------2-----2--2--|
D|-----------------2--------0-----------|
A|--------0-----------------------------|
E|--------------------------------------|
    Am             Dm7
 Iginuhit na ng tadhana


E|--------------1-----------3-----1--0--------------0--|
B|--------0--1--1-----------0-----------1--1-----------|
G|--2--2--------2-----------0--0-----------------0-----|
D|--------------3-----------0-----------------2--------|
A|--------------3--------2-----------------3-----------|
E|-----1--------1--1--3--------------------------------|
    F            G            C
 Na tayong dalawa  ay maging isa


Instrumental:  Follow chords from Verse 1

Verse 2 

E|-----------0-----------------------------|
B|-----1--3--1--1-----3--------1--1--------|
G|--0--------2-----2--------------------0--|
D|-----------3--------------0--------2-----|
A|-----------------------2--------3--------|
E|--------------------3--------------------|
C         FM7-G    C              
 Ikaw ang una't huling


E|--------0--0--1--------0--------|
B|--1--3-----1-----3--1-----------|
G|-----------2-----------------0--|
D|-----------3--------------2-----|
A|-----------------------3--------|
E|-----------------3--------------|
       FM7    G      C
 Mamahalin ko ng gan'to


E|-----0--3--3--------1--------0--0--------|
B|--1--------------------------------------|
G|--------------------------------------0--|
D|-----------------2--------3--------2-----|
A|--------------2--------3--------3--------|
E|-----------0--------1--------------------|
           Em-F     C
 Nais kong malaman mo


E|--------0--0--1--------------------------0--|
B|--1--3-----1-----3--------1--1--------1-----|
G|-----------2-----------------------0--------|
D|-----------3-----------0--------2-----------|
A|--------------------2--------3--------------|
E|-----------------3--------------------------|
       FM7     G    C
 Dati pangarap lang ito

Refrain: (same TAB on refrain)

 F        G         C    
 Sinlinaw ng langit na bughaw

 F        G        C 
 Hanggang sa dulo ako at ikaw

    Am             Dm7
 Iginuhit na ng tadhana

    F             G      
 Na tayong dalawa

            C     FM7 G A
 Ay maging isa


Shift Capo to 4th Fret!


E|--0-----------------3--------0--|
B|-----1-----3-----------1-----1--|
G|--------2-----------------0--0--|
D|--3--------------0-----------2--|
A|--------------2-----3--------3--|
E|-----------3--------------------|
 FM7-G  C    
 Habang-buhay


E|--0-----------------3--------0--|
B|-----1-----3-----------1-----1--|
G|--------2-----------------0--0--|
D|--3--------------0-----------2--|
A|--------------2-----3--------3--|
E|-----------3--------------------|
 FM7-G  C       
 Habang-buhay

FM7-G-C

Repeat refrain, maintain Capo on 4th Fret.

E|--------0--0--1--------------------------0--|
B|--1--3-----1-----3--------1--1--------1-----|
G|-----------2-----------------------0--------|
D|-----------3-----------0--------2-----------|
A|--------------------2--------3--------------|
E|-----------------3--------------------------|
         FM7      G    C
 Una't huling pag-ibig ko

            
Submit corrections


        Unat Huling Pag-Ibig  lessons Hard to play? Try these video lessons and learn fast Unat Huling Pag-Ibig  lessons
        
↑ Back to top | Tablatures and chords for acoustic guitar and electric guitar, ukulele, drums are parodies/interpretations of the original songs. You may use it for private study, scholarship, research or language learning purposes only