» » »

Yellowman - Zungguzungguguzungguzeng Bass

Artists:  A B C D E F G H I J K L M N O P Q R S T U V W X Y Z # 

Zungguzungguguzungguzeng Bass

(ver. 1) Click to play this song!
Yellowman
 Rating:
3.7/5 (24 votes)

 Zungguzungguguzungguzeng  lessons Tabs too difficult? Try these video lessons and learn fast
 
                    1st riff:
G|---------------------------------------------------------------------------|
D|---------------------------------------------------------------------------|
A|--------------3-33-5-------------------------------------------------------|
E|--------5-55-5------5------------------------------------------------------|

    2nd riff:
G|---------------------------------------------------------------------------|
D|---------------------------------------------------------------------------|
A|--------------------7------------------------------------------------------|
E|--------5-55-55-55---5-----------------------------------------------------|            
Submit corrections


        Zungguzungguguzungguzeng  lessons Hard to play? Try these video lessons and learn fast Zungguzungguguzungguzeng  lessons
        
↑ Back to top | Tablatures and chords for acoustic guitar and electric guitar, ukulele, drums are parodies/interpretations of the original songs. You may use it for private study, scholarship, research or language learning purposes only