» » »

Yellowcard - A.W.O.L Tabs

Artists:  A B C D E F G H I J K L M N O P Q R S T U V W X Y Z # 

A.W.O.L Tabs

(ver. 2) Click to play this song!
Yellowcard
 Rating:
4/5 (4 votes)


 A.W.O.L lessons Tabs too difficult? Try these video lessons and learn fast
 
                (1)
--------------------------------------------------
                Yelowcard- A.W.O.L.
--------------------------------------------------



hey guys. this song is really good. i dont remember what cd its on but it doesnt really matter.

--------------------------------------------------|
--------------------------------------------------|
--------------------------------------------------|
--9---9---9------------9---9---9---2--------------|
--7-------9------------7-------9---2--------------|
--7-------7----7h9p7---7-------7---0--------------|
 x5      x5           x5      x5

----------1----x------------------------------------|
----------2----3------------------------------------|
----------1----3----4h6p4---------------------------|
--9---4---3----3----------7-------------------------|
--9---6---1----1------------------------------------|
--7---7---x----x------------------------------------|

-----------------------1----x-----------------------|
-----------------------2----3-----------------------|
-----------------------1----3---4h6p4---------------|
--9---9---9---x---9----3----3---------7-------------|
--7-------9---x---9----1----1-----------------------|
--7-------7---x---7----x----x-----------------------|
 x5      x5  x4  x3   x7

--1----1--------------------------------------------|
--2----1--------------------------------------------|
--4----1--------------------------------------------|
--3----4----7---6--4-----6-----6--4-----------------|
--1----3----7---------7-----4-----------------------|
--x----1----5---------------------------------------|
      x3

--------------------------------------------------|
--------------------------------------------------|
--------------------------------------------------|
--4h6--6--4--2--1--1h2--2---4h6--6-4-6-4----------|
--------------------------2-----------------------|
--------------------------------------------------|

---------------------------|
---------------------------|
----------4---6---8--------|
--6---4---4---6---8---11---|
--4---4---2---4---6---9----|
--4---2---------------9----|

-------------|----------|---------------|------------|
-------------|----------|---------------|------------|
-------------|----------|---------------|--5--7------|
--6---8---9--|------1-2-|--4---1h2p1p0--|--5--7------|
--4---6---7--|--0-2-----|--4------------|--3--5------|
-------------|----------|--2------------|------------|
pm.   .   .                .

-----------------|---------------------------------|
-----------------|---------------------------------|
--9---8---5---7--|---4-----------------------------|
--9---8---5---7--|-6---6-4-2-4-6-7-6-4-6-4-2-------|
--7---6---3---5--|---------------------------------|
-----------------|---------------------------------|
                 x 3       4     4 5 5 2

------------------|------------------------|--------|
------------------|------------------------|--------|
-----4--6--8------|-----4------------------|--------|
--4--4--6--8--11--|--2--4--7--6------------|--2~~~--|
--4--2--4--6--9---|--2--2--7--6------------|--2~~~--|
--2-----------9---|--0-----5--4---4h5p4-2--|--0~~~--|

---------------|-------------|---------------------------------------------|
---------------|-------------|---------------------------------------------|
--9-xxx-9-xxx--|-9--8--5--7--|----4----------------------------------------|
--9-xxx-9-xxx--|-9--8--5--5--|--6---6-4-2-4-6-9h10-10-9-9h10-10-9-9h10-----|
--7-xxx-7-xxx--|-7--6--3--5--|---------------------------------------------|
---------------|-------------|---------------------------------------------|

------------|--------------------------------------|
------------|--------------------------------------|
------------|----4---------------5-----------------|
-10-10-9-7--|--6---6-2--22--22---5-----------------|
------------|--------------------3-----------------|
------------|--------------------------------------|

thats the song. its not 100% correct, but its really close. i didnt show how many times 
should play each verse but its easy to figure out.
            
Submit corrections



        A.W.O.L lessons Hard to play? Try these video lessons and learn fast A.W.O.L lessons
        
↑ Back to top | Tablatures and chords for acoustic guitar and electric guitar, ukulele, drums are parodies/interpretations of the original songs. You may use it for private study, scholarship, research or language learning purposes only