» » »

Yeah Yeah Yeahs - Gold Lion Tabs

Artists:  A B C D E F G H I J K L M N O P Q R S T U V W X Y Z # 

Gold Lion Tabs

(ver. 2) Click to play this song!
Yeah Yeah Yeahs
 Rating:
4.8/5 (30 votes)
                

Chords throughout the song are:  F#  A  E  A


Break (Guitar 1)

e|--14----12----------12--------------------------------------------|
B|--------------14----------14----12----------------------12^(1/2)--|
G|--------------------------------------14----11----14--------------|
D|------------------------------------------------------------------|
A|------------------------------------------------------------------|
E|------------------------------------------------------------------|

e|--14----12----------12--------------------------------------------|
B|--------------14----------14----12--------------------------------|
G|--------------------------------------14----11----14----9---/11~--|
D|------------------------------------------------------------------|
A|------------------------------------------------------------------|
E|------------------------------------------------------------------|

Break (Guitar 2)

e|------------------------------------------------------------------|
B|------------------------------------------------------------------|
G|------------------------------------------------------------------|
D|------------------------------------------------------------------|
A|-------------------------/4----2--------/7----4-------------------|
E|--2--------4----5--------------------------------------5----4-----|

e|------------------------------------------------------------------|
B|------------------------------------------------------------------|
G|------------------------------------------------------------------|
D|------------------------------------------------------------------|
A|-------------------------/4----2--------/7------------------------|
E|--2--------4----5------------------------------5--------5--4--2---|


Riff at the end of the song:

e|----------------------------------------12------------------------|
B|--------------------------14--12------------14--------------------|
G|--11--------13--14------------------------------------14--13------|
D|------------------------------------------------------------------|
A|------------------------------------------------------------------|
E|------------------------------------------------------------------|


Note played during outro:

e|----14----|
B|----------|
G|----------|
D|----------|
A|----------|
E|----------|
            
Submit corrections

↑ Back to top | Tablatures and chords for acoustic guitar and electric guitar, ukulele, drums are parodies/interpretations of the original songs. You may use it for private study, scholarship, research or language learning purposes only