» » »

Yeah Yeah Yeahs - Date With The Night Tabs

Artists:  A B C D E F G H I J K L M N O P Q R S T U V W X Y Z # 

Date With The Night Tabs

(ver. 1) Click to play this song!
Yeah Yeah Yeahs
 Rating:
4/5 (7 votes)


 Date With The Night lessons Tabs too difficult? Try these video lessons and learn fast
 
                     -----------------------------------------------
          YEAH YEAH YEAHS - DATE WITH THE NIGHT
     -----------------------------------------------

There are a couple other versions of this, but one's in Drop-D which isn't how it's 
and the other isn't at all accurate. I've played this song myself several times, and I'm 
sure this is how it is.


Standard Tuning (EADGBE)


Intro:

|------------------------------------------------------------|
|------------------------------------------------------------|
|------------------------------------------------------------|
|------------------------------------------------------------|
|------------------------------------------------------------|
|0-0-15*-00--0-15*-00--0-15*-00--0-15*-00--0-15*-00--0-15*-00|

Verse:

|---------------------|
|---------------------|
|---------------------|
|---------------------|
|---------------------|
|-0-0-15-17-0-0-10-12-| x4

|------------------------|
|------------------------|
|------------------------|
|-7--7--7--7--5--5--5--5-|
|-7--7--7--7--5--5--5--5-|
|-5--5--5--5--3--3--3--3-|

|---------------------|
|---------------------|
|---------------------|
|---------------------|
|---------------------|
|-0-0-15-17-0-0-10-12-| x6

|-----------------------|
|-----------------------|
|-----------------------|
|-9--9--9--9--7--7--7--7|
|-9--9--9--9--7--7--7--7|
|-7--7--7--7--5--5--5--5|

|1/\/\/\/\/\/\/\/\/\/\/\/\/\/\/\/|
|1/\/\/\/\/\/\/\/\/\/\/\/\/\/\/\/|
|1/\/\/\/\/\/\/\/\/\/\/\/\/\/\/\/|
|1/\/\/\/\/\/\/\/\/\/\/\/\/\/\/\/|
|1/\/\/\/\/\/\/\/\/\/\/\/\/\/\/\/|
|1/\/\/\/\/\/\/\/\/\/\/\/\/\/\/\/|
Sounds as crazy as it looks. Just slide back and forth while progressing up the neck of 
guitar.

Repeat Verse

Break:

 Tremolo Picking
|---------------|
|---------------|
|3//////////////|
|---------------|
|---------------|
|---------------|


Bridge:

 P.M..................
|---------------------|
|---------------------|
|---------------------|
|---------------------|
|---------------------|
|-0-0-15-17-0-0-10-12-| x8

 Tremolo Picking
|------------------------|
|------------------------|
|33333333333/171717171717|
|------------------------|
|------------------------|
|------------------------|

Repeat Bridge

Repeat Intro

Repeat Verse

End on:

|-------------------------------|
|-------------------------------|
|-------------------------------|
|-9--9--9--9--12--12--12--12--14|
|-9--9--9--9--12--12--12--12--14|
|-7--7--7--7--10--10--10--10--12|


This is my second tab. If you liked it, please rate.
            
Submit corrections



        Date With The Night lessons Hard to play? Try these video lessons and learn fast Date With The Night lessons
        
↑ Back to top | Tablatures and chords for acoustic guitar and electric guitar, ukulele, drums are parodies/interpretations of the original songs. You may use it for private study, scholarship, research or language learning purposes only